» » »

I'm Not That Girl Tabs (ver.1)

Artists:  A B C D E F G H I J K L M N O P Q R S T U V W X Y Z # 

I'm Not That Girl Tabs (ver.1)

Wicked
Rating:
0/5 (0 votes)

Hard to play? Try these video lessons and learn fast.
                -------------------------------------------------------------------------------
-------------------------------------------------------------------------------

Tuning: Standard

Intro:   
e|--0--||
B|-----||
G|-----||   x14
D|-----||
A|-----||
E|-----||


Hands touch...

e|--0-0--0-0---5-4-2-0----------------------0------5-4-2-7-0--------5-------------||
B|--------------------------5-2---3-2-0---0-------------------3-3-2---0-----------||
G|------------------------4-------------2-----------------------------------------||
D|--------------------------------------------4-----------------------------------||
A|--------------------------------------------------------------------------------||
E|--------------------------------------------------------------------------------||

Don't dream too far...

e|--0-0--0h2p0---5-4-2-0----------------------0------5-4-2-7-0------5-5-----------||
B|--------------------------5-2---3-3-2-0---0-------------------3-2---------------||
G|------------------------4---------------2---------------------------------------||
D|----------------------------------------------4---------------------------------||
A|--------------------------------------------------------------------------------||
E|--------------------------------------------------------------------------------||

Every so often...

e|--5-3-5-1----5h6p5-3-1-3--3-3-3-1-3-----1---1-3-1-3-----0-0-2--------0-0-0-0-0-0||
B|----------1-------------------------4-1-------------4-1-------3--3-4------------||
G|--------------------------------------------------------------------------------||
D|--------------------------------------------------------------------------------||
A|--------------------------------------------------------------------------------||
E|--------------------------------------------------------------------------------||

Blithe smile, lithe limb...

e|--0-0--0-0---5-4-2-0--------------------0-----5-4-2-7-0------5------------------||
B|------------------------5-2---3-2-0---0------------------3-2---0---2------------||
G|----------------------4-------------2--------------------------------4-2h4p2----||
D|------------------------------------------4-------------------------------------||
A|--------------------------------------------------------------------------------||
E|--------------------------------------------------------------------------------||

Don't wish, don't start...

e|--0-0--0-0---5-4-2-0------------------------------------------------------------||
B|------------------------5-2---3-3-3-2--0---0--5h7-7-----------------------------||
G|----------------------4------------------2--------------------------------------||
D|-----------------------------------------------------4--------------------------||
A|--------------------------------------------------------------------------------||
E|--------------------------------------------------------------------------------||

There's a girl I know...

e|--5-4-2-7h9-0-------5-----------------------------------------------------------||
B|----------------3-2---0-------2--0----------------------------------------------||
G|------------------------------------2-------------------------------------------||
D|---------------------------------------2----------------------------------------||
A|--------------------------------------------------------------------------------||
E|--------------------------------------------------------------------------------||


If you have any questions regarding this tab, tweet me @MarcWoodyF1


************************************

| h   hammer-on
| p   pull-off

************************************
            
Hard to play? Try these video lessons and learn fast. | Correct




comments powered by Disqus
↑ Back to top | Tablatures and chords are parodies/interpretations of the original songs. You may use it for private study, scholarship, research or language learning purposes only