>
 >
I Will Always Love You..

I Will Always Love You.. Guitar Tabs

Whitney Houston - I Will Always Love You.. chords, tabs, tablatures, lyrics

Guitar lessons | Add/correct | Request | Top 50 tabs Artists:  A B C D E F G H I J K L M N O P Q R S T U V W X Y Z 0-9

I Will Always Love You.. Guitar Tabs – Whitney Houston

CD, Sheet music, Poster

Do you like I Will Always Love You..? Share with your friends now
ChordsChords v2Chords v3Tabs
This is pretty much the same as the other tabs but if u play the chorus like this it sounds better

Verse:
   A          A
If I, should stay
         F#m
I would only be in
     D   E
Your way
      A         A
So I go, but I know
      F#m
I'll think of you, every step
        D  E
Of the way

Chorus:

And I-I-I-I will always

e[--5-5-5--6--2-2-2-----2-2-2-2--0-0-0-0--]
b[--5-5-5--6--2-2-2-----3-3-3-3--0-0-0-0--]
g[--6-6-6--6--2-2-2-----2-2-2-2--1-1-1-1--]
d[--7-7-7--6--4-4-4-----0-0-0-0--2-2-2-2--]
a[--7-7-7--6--4-4-4--------------2-2-2-2--]
E[--5-5-5--4--2-2-2--0-----------0-0-0-0--]

Love you, you, I, will always love you

e[--5-5-5--6--2-2-2-----2-2-2-2--0-0-0-0--]
b[--5-5-5--6--2-2-2-----3-3-3-3--0-0-0-0--]
g[--6-6-6--6--2-2-2-----2-2-2-2--1-1-1-1--]
d[--7-7-7--6--4-4-4-----0-0-0-0--2-2-2-2--]
a[--7-7-7--6--4-4-4--------------2-2-2-2--]
E[--5-5-5--4--2-2-2--0-----------0-0-0-0--]

Bridge:
F#m       E
You, my darling you

Verse:
      A         A
Bittersweet, memories
          F#m
That's all I, am taking
     D E
With me
        A            A
So goodbye, please don't cry
        F#m
We both know, I'm not
           D E
What you need

Chorus:
    
And I-I-I-I will always

e[--5-5-5--6--2-2-2-----2-2-2-2--0-0-0-0--]
b[--5-5-5--6--2-2-2-----3-3-3-3--0-0-0-0--]
g[--6-6-6--6--2-2-2-----2-2-2-2--1-1-1-1--]
d[--7-7-7--6--4-4-4-----0-0-0-0--2-2-2-2--]
a[--7-7-7--6--4-4-4--------------2-2-2-2--]
E[--5-5-5--4--2-2-2--0-----------0-0-0-0--]

Love you, you, I, will always love you

e[--5-5-5--6--2-2-2-----2-2-2-2--0-0-0-0--]
b[--5-5-5--6--2-2-2-----3-3-3-3--0-0-0-0--]
g[--6-6-6--6--2-2-2-----2-2-2-2--1-1-1-1--]
d[--7-7-7--6--4-4-4-----0-0-0-0--2-2-2-2--]
a[--7-7-7--6--4-4-4--------------2-2-2-2--]
E[--5-5-5--4--2-2-2--0-----------0-0-0-0--]

Solo( Am B F#m Am Dm E Am)x2

e[---------------------------------------------------------]
b[--12b14-12b-12b-12b-r12---12b14--12-12-------------------]
g[----------------------------------------10-10------------]
d[---------------------------------------------------------]
a[---------------------------------------------------------]
E[---------------------------------------------------------]

e[---------------------------------------------------------]
b[--10b12-10-10--10-9--------------------------------------]
g[--------------------10--10b12-10-10----------------------]
d[---------------------------------------------------------]
a[---------------------------------------------------------]
E[---------------------------------------------------------]

e[--------------------------------------------12-12b14r12--]
b[--12b14-12b---12p10p12---12b-12b--12p10--14--------------]
g[---------------------------------------------------------]
d[---------------------------------------------------------]
a[---------------------------------------------------------]
E[---------------------------------------------------------]

e[---------------------------------------------------------]
b[--12/14-12p10--10/12--9-9/12---------9/12----------------]
g[------------------------------10/12--------12p10---------]
d[---------------------------------------------------------]
a[---------------------------------------------------------]
E[---------------------------------------------------------]

legend
/ slide
b bend
p pull off


Verse:
   A                     A
I hope, life treats you kind
       F#m
And I hope, you have all
               D E
You've dreamed of
                   A
And I wish to you joy, and happines
          F#m
But above all of this
             D E
I wish you love

Chorus:
    B Abm E     F#
And I-I-I-I will always
     B    Abm E       F#           B
Love you, I-I-I, will always love you
Abm  E       F#           B
You, I, will always love you
Abm  E       F#           B
You, I, will always love you





Comments


Popular Whitney Houston tabs & chords
Didn't We Almost Have It All Chords
How Will I Know 2 Chords
I Believe In You And Me Chords
I Wanna Dance With Somebody 2 Chords
You Light Up My Life Chords
Your Love Is My Love Chords
Greatest Love Of All Ukulele
I Believe In You And Me Ukulele
I Wanna Dance With Somebody Ukulele
Try It On My Own Ukulele


Song lyrics



↑ Back to top | Tablatures and chords are parodies/interpretations of the original songs. You may use it for private study, scholarship, research or language learning purposes only
© 2014 AZChords.com Contact us | Privacy policy | DMCA | Add/correct tabs | Request tabs | Top 50 tabs