>
 >
Youre All That I Need 2

Youre All That I Need 2 Guitar Tabs

White Lion - Youre All That I Need 2 chords, tabs, tablatures, lyrics

Guitar lessons | Add/correct | Request | Top 50 tabs Artists:  A B C D E F G H I J K L M N O P Q R S T U V W X Y Z 0-9

Youre All That I Need 2 Guitar Tabs – White Lion

CD, Sheet music, Poster

Do you like Youre All That I Need 2? Share with your friends now
TabsTabs v2Tabs v3Tabs v4
-------------------------------------------------------------------------------
                   You're All That I Need - White Lion
-------------------------------------------------------------------------------

All the other tabs i found of this song were incomplete and with many mistakes,
so using some of the correct parts, i've added to them
and corrected them to make this tab.

Tuning: e A D G B E

INTRO:
e|---------------------------------------------------------------------------|
B|--------3-2----------0---2---2h3-------------------------------------------|
G|----2-------2p0--------0---0-----------------------------------------------|
D|------0--------------------------------------------------------------------| X 2
A|-------------------2-------------------------------------------------------|
E|--2--------------3---------------------------------------------------------|

e|---------------------------------------2---2h3p2-2-------------------------|
B|--------3-2----------0-------2-------3---3---------------------------------|
G|----2-------2p0--------0-------2---2---------------------------------------|
D|------0--------------------2-----0-----------------------------------------|
A|-------------------2-----0-------------------------------------------------|
E|--2--------------3---------------------------------------------------------|


Verse:
e|----------------------------------------3-2-0---------------0--------------|
B|--------3-2----------0---2---2h3----0---------0-----2---3-----3------------|
G|----2-------2p0--------0---0----------0---------------2---2----------------|
D|------0-------------------------------------------2------------------------| X 2
A|-------------------2----------------------------0--------------------------|
E|--2--------------3----------------0----------------------------------------|

e|----------------------------------------3-2-0---| |-------------3-------------2---2h3p2-----|
B|--------3-2----------0---2---2h3----0---------0-| |-----2---------3---------3---3-------3---|
G|----2-------2p0--------0---0----------0---------| |-------2--------------2------------------| X 2
D|------0-----------------------------------------| |---2----------------0--------------------|
A|-------------------2----------------------------| |-0---------2-----------------------------|
E|--2--------------3----------------0-------------| |---------3-------------------------------|

e|---------------------|
B|------2-------3------|
G|--------2-------0----|
D|----2----------------|
A|--0---------2--------|
E|----------3----------|


Chorus I
e|----------2---------------2---------------3---------------0------------------|
B|------3-----3---------------2---------------3-----------2---2----------------|
G|----2---2-----2---------2-----2---------0-----0-------2-------2--------------|
D|--0-------------0-----4---------4-----0---------0---2-----------2------------| X 2
A|--------------------4---------------2-------------0--------------------------|
E|------------------2---------------3------------------------------------------|

e|----------3--------3---|
B|------------3------3---|
G|--------0-----0----0---|
D|------0---------0--0---|
A|----2--------------2---|
E|--3----------------3---|

After chorus play Intro - Verse then;

Chorus II
e|----------2---------------2---------------3---------------0------------------|
B|------3-----3---------------2---------------3-----------2---2----------------|
G|----2---2-----2---------2-----2---------0-----0-------2-------2--------------|
D|--0-------------0-----4---------4-----0---------0---2-----------2------------| X 2
A|--------------------4---------------2-------------0--------------------------|
E|------------------2---------------3------------------------------------------|

e|----------3---------------0------------|
B|------------3-----------2---2----------|
G|--------0-----0-------2-------2--------|
D|------0---------0---2-----------2------|
A|----2-------------0--------------------|
E|--3------------------------------------|

Bridge:
 Bm                      G               Em                              A
 Say, say that you'll be there, whenever i reach out to feel you hand in mine
 D                    G               Em                            A
 Stay, stay within my heart, whenever i'm alone i know that you are there
 A
 oooh oooh
    Bm                                 G                                   Em 
e|----------2---------------2-------|------------3---------------3-------|---------0---------------0----------|
B|--------3---3-----------3---3-----|--------------3---------------2-----|-----------0---------------0--------|
G|------4-------4-------4-------4---|--------0-------0---------0-----0---|-------0-----0---------0-----0------|
D|----4-----------4---4-----------4-|------0-----------0-----0---------0-|-----2---------2-----2---------0----|
A|--2---------------2---------------|----2-----------------2-------------|---2---------------2----------------|
E|----------------------------------|--3-----------------3---------------|-0---------------0------------------|
    A                                                                  D
e|----------0---------------0-------|                               |----------2---------------2----------|
B|--------2---2-----------2---2-----|                               |------3-----3---3-----3-----3---3----|
G|------2-------2-------2-------2---| X 2                           |----2---2-----2-----2---2-----2------|
D|----2-----------2---2-----------2-| (2nd time use D instead of Bm)|--0---------------0------------------|
A|--0---------------0---------------|         ----->                |-------------------------------------|
E|----------------------------------|                               |-------------------------------------|

Solo:

Rhythm guitarist backs solo up with: G A D Bm  - G A D Bm - G A

e|-----------7--------------------14--12h14p12-12-10--9----||
B|------8-10---10-------10----------------------------------||
G|----------------7/9-9------9/11---------------------------||
D|---10-----------------------------------------------------||
A|----------------------------------------------------------||
E|----------------------------------------------------------||


e|------------10--9h10p9---10--9---------------------------||
B|---7h8p7-------------------------10--5h77^---------------||
G|----------------------------------------------------------||
D|----------------------------------------------------------||
A|----------------------------------------------------------||
E|----------------------------------------------------------||


e|---14^--14p12p10------17-19--15--14----------------------||
B|------------------14------------------10------------------||
G|----------------------------------------------------------||
D|----------------------------------------------------------||
A|----------------------------------------------------------||
E|----------------------------------------------------------||


e|---13^--13p12p10-----7--9^v--7h9p7------12-15--17--19-17-||
B|------------------12-----------------8--------------------||
G|----------------------------------------------------------||
D|----------------------------------------------------------||
A|----------------------------------------------------------||
E|----------------------------------------------------------||
                                            
After Solo, play Chorus II then;

Outro:

e|----------3----------------0---------------3---------------3h5p3------------|
B|------3-----2---2------1-----1---1-----3-----3---3-----3---------3----------|
G|----2---2-----2----------2-----2-----0---3-----0-----3---3---------3--------|
D|--0------------------2------------------------------------------------------|
A|-------------------0--------------------------------------------------------|
E|-----------------------------------3---------------3------------------------|
                                               [slow strum]
e|----------3--------|-0-|----------2h3p2-0-2---------2-----------------------|
B|------3-----2---2--|-2-|------3-------------------3-------------------------|
G|----2---2-----2----|-2-|----2---2---------------2---------------------------|
D|--0----------------|-2-|--0-------------------0-----------------------------|
A|-------------------|---|----------------------------------------------------|
E|-------------------|---|----------------------------------------------------|


Thanks to "The FIEZER" for the solo, i added it here to make the complete song,
and can be found as a seperate tab on this site.

| /  slide up
| \  slide down
| h  hammer-on
| p  pull-off
| ~  vibrato
| +  harmonic
| x  Mute note
===============================================================================





Comments


Popular White Lion tabs & chords
Farewell To You 1 Chords
Love Dont Come Chords
Till Death Do Us Part Chords
Blue Monday Tabs
Broken Heart Tabs
Broken Heart 1 Tabs
Farewell To You Tabs
Hungry Tabs
When The Children Cry Tabs
Youre All That I Need Tabs


Song lyrics



↑ Back to top | Tablatures and chords are parodies/interpretations of the original songs. You may use it for private study, scholarship, research or language learning purposes only
© 2014 AZChords.com Contact us | Privacy policy | DMCA | Add/correct tabs | Request tabs | Top 50 tabs