>
 >
You're All I Need 1

You're All I Need 1 Guitar Tabs

White Lion - You're All I Need 1 chords, tabs, tablatures, lyrics

Guitar lessons | Add/correct | Request | Top 50 tabs Artists:  A B C D E F G H I J K L M N O P Q R S T U V W X Y Z 0-9

You're All I Need 1 Guitar Tabs – White Lion

CD, Sheet music, Poster

Do you like You're All I Need 1? Share with your friends now
TabsTabs v2Tabs v3
Artist          : White Lion
Song Title      : You're All I Need
Album           : Mane Attraction

friendster: Michael Yu ( I Have only 1 freind )

I dedicate this tab to all the guitarist who loves this song
and for the love of my life na ng graduate na!... Yoks! wla pko
gyapon ka move... hangang tingin ling ko... cge lng ah! good luck 
and take care... where ever you are... aton ni theme song...and 4 
the record...this is my first tab so just work with me! :-]  

[Intro]

[Guitar 1]
    Bmsus2                                
E|--------------------------|--------------------------|
B|-----------3-----2--------|--------0-----2-----2h3---|
G|-----2--------------2-----|-----0-----0-----0--------|
D|--------4--------------4--|--------------------------|
A|--------------------------|--------------------------|
E|--2-----------------------|--3-----------------------|
    Bmsus2                                
E|--------------------------|--------------------------|
B|-----------3-----2--------|--------0-----2-----2h3---|
G|-----2--------------2-----|-----0-----0-----0--------|
D|--------4--------------4--|--------------------------|
A|--------------------------|--------------------------|
E|--2-----------------------|--3-----------------------|

and then: 
    Bmsus2                                 A     A7
E|--------------------------|--------------------------|
B|-----------3-----2--------|--------0-----------2-----|
G|-----2--------------2-----|-----0-----0-----2-----0--|
D|--------4--------------4--|--------------------------|
A|--------------------------|--------------0-----------|
E|--2-----------------------|--3-----------------------|
       D     Dsus
E|-----------2---2-3---2----|
B|--------3----3------------|
G|-----2--------------------|
D|--0-----------------------|
A|--------------------------|
E|--------------------------|



[Verse]
Play the line 2 times.

[Guitar 1]
    Bmsus2                                
E|--------------------------|--------------------------|
B|-----------3-----2--------|--------0-----2-----2h3---|
G|-----2--------------2-----|-----0-----0-----0--------|
D|--------4--------------4--|--------------------------|
A|--------------------------|--------------------------|
E|--2-----------------------|--3-----------------------|
                                  A    Asus
E|-----------3-----2--------|--------------------0-----|
B|--------0-----------0-----|--------2-----3------- 3--|
G|-----0-----------------0--|-----2-----2-----2--------|
D|--------------------------|--------------------------|
A|--------------------------|--0-----------------------|
E|--0-----------------------|--------------------------|
    Bmsus2                                
E|--------------------------|--------------------------|
B|-----------3-----2--------|--------0-----2-----2h3---|
G|-----2--------------2-----|-----0-----0-----0--------|
D|--------4--------------4--|--------------------------|
A|--------------------------|--------------------------|
E|--2-----------------------|--3-----------------------|
                                  A    Asus
E|-----------3-----2--------|--------------------0-----|
B|--------0-----------0-----|--------2-----3------- 3--|
G|-----0-----------------0--|-----2-----2-----2--------|
D|--------------------------|--------------------------|
A|--------------------------|--0-----------------------|
E|--0-----------------------|--------------------------|

and then:
E|--------------------------|--------------------------|
B|-----------3-----2--------|--------0-----2-----2h3---|
G|-----2--------------2-----|-----0-----0-----0--------|
D|--------4--------------4--|--------------------------|
A|--------------------------|--------------------------|
E|--2-----------------------|--3-----------------------|

E|-----------3-----2--------|--------------------3-----|
B|--------0-----------0-----|--------2--------0-----0--|
G|-----0-----------------0--|-----2--------0-----------|
D|--------------------------|--------------------------|
A|--------------------------|--0-----------------------|
E|--0-----------------------|-----------3--------------|

E|-----------2-----2h3p2h3--|--------------------3-----|
B|--------3------3----------|--------2--------0-----0--|
G|-----2--------------------|-----2--------0-----------|
D|--0-----------------------|--------------------------|
A|--------------------------|--0-----------------------|
E|--------------------------|-----------3--------------|

E|-----------2-----2h3p2h3--|--------------------3-----|
B|--------3------3----------|--------2--------0-----0--|
G|-----2--------------------|-----2--------0-----------|
D|--0-----------------------|--------------------------|
A|--------------------------|--0-----------------------|
E|--------------------------|-----------3--------------|

E|-----------2-----2h3p2h3--|--------------------------|
B|--------3------3----------|-----------------------2--|
G|-----2--------------------|-----------0--------0-----|
D|--0-----------------------|--------0--------2--------|
A|--------------------------|-----2--------0-----------|
E|--------------------------|--3-----------------------|


[Chorus]
Play the line 2 times.

[Guitar 1]
E|-----------2--------------|-----------2--------------|
B|--------3-----3-----3-----|--------2-----2-----2-----|
G|-----2-----------2-----2--|-----2-----------2-----2--|
D|--0-----------------------|--------------------------|
A|--------------------------|--------------------------|
E|--------------------------|--2-----------------------|

E|-----------3--------------|-----------0--------------|
B|--------0-----0-----0-----|--------2-----2-----2-----|
G|-----0-----------0-----0--|-----2-----------2-----2--|
D|--------------------------|--------------------------|
A|--------------------------|--0-----------------------|
E|--3-----------------------|--------------------------|

And then:
E|-----------0--------------|--0-----------------------|
B|--------2-----2-----2--- -|--2-----------------------|
G|-----2-----------2-----2--|--2-----------------------|
D|--------------------------|--2-----------------------|
A|--0-----------------------|--0-----------------------|
E|--------------------------|--------------------------|

repeat [intro] and [verse]

[Second Chorus]

[Guitar 1 and 2]

E|--2-------------------3---|--0----------2------------|
B|--3---------3---------3---|--2----------3------------|
G|--2---------2---------0---|--2----------2------------|
D|--0---------0---------0---|--2----------0------------|
A|------------0---------2---|--0-----------------------|
E|------------2---------3---|--------------------------|

E|--------------------------|--0----------2---5--3--2--|
B|--3---------0-------------|--2----------2------------|
G|--2---------0-------------|--2----------0------------|
D|--0---------2-------------|--2----------0------------|
A|--0---------2-------------|--0----------2------------|
E|--2---------0-------------|-------------3------------|


[Interlude]

[Guitar 1 and 2]
E|--2--------2-----0--------|--3-----------------------|
B|--3--------3-----2------ -|--3-----------------------|
G|--4--------4-----2--------|--0-----------------------|
D|--4--------4-----2--------|--0-----------------------|
A|--2--------2-----0--------|--2-----------------------|
E|--------------------------|--3-----------------------|

E|--0-----------------------|--0-----------------------|
B|--0-----------------------|--2-----------------------|
G|--0-----------------------|--2-----------------------|
D|--2-----------------------|--2-----------------------|
A|--2-----------------------|--0-----------------------|
E|--0-----------------------|--------------------------|

[Guitar 1 Solo]
e|-------------------------------------------12--------|
B|---------8--------8---9-----------12p10h12----10\7---|
G|---8h10---10---10--10---10/12-12---------------------|
D|-----------------------------------------------------|
A|-----------------------------------------------------|
E|-----------------------------------------------------|

e|------------------10--------------13^---13-11-10-----|
B|----------10p8h10----8\6--6-8/9----------------------|
G|--9/10-10--------------------------------------------|
D|-----------------------------------------------------|
A|-----------------------------------------------------|
E|-----------------------------------------------------|

e|--13/14--14--13--11-------13^-13-11-10---------------|
B|----------------------12-----------------------------|
G|-----------------------------------------------------|
D|-----------------------------------------------------|
A|-----------------------------------------------------|
E|-----------------------------------------------------|

e|--9-13-12--10h11p9------13--15--16--15^--------------|
B|--------------------12-------------------------------|
G|-----------------------------------------------------|
D|-----------------------------------------------------|
A|-----------------------------------------------------|
E|-----------------------------------------------------|

[Guitar 2 Solo join with Guitar 1]
E|--2----------0------------|--2----------2------------|
B|--2----------2------------|--3----------3------------|
G|--0----------2------------|--2----------4------------|
D|--0----------2------------|--0----------4------------|
A|--2----------0------------|-------------2------------|
E|--3-----------------------|--------------------------|

E|--2----------0------------|--3----------2------------|
B|--2----------2------------|--3----------3------------|
G|--0----------2------------|--3----------4------------|
D|--0----------2------------|--4----------4------------|
A|--2----------0------------|--4----------2------------|
E|--3-----------------------|--2-----------------------|

E|--2-----------------------|--0-----------------------|
B|--2-----------------------|--2-----------------------|
G|--0-----------------------|--2-----------------------|
D|--0-----------------------|--2-----------------------|
A|--2-----------------------|--0-----------------------|
E|--3-----------------------|--------------------------|


[Outro]
[Guitar 1]
E|--------------2-----------|--------------0-----------|
B|--------3--------3-----3--|--------2--------2-----2--|
G|-----2-----2--------2-----|-----2-----2--------2-----|
D|--0-----------------------|--------------------------|
A|--------------------------|--0-----------------------|
E|--------------------------|--------------------------|

E|--------------3-----------|--------------3-----------|
B|--------3--------3-----3--|--------3--------3-----3--|
G|-----0-----0--------0-----|-----0-----0--------0-----|
D|--------------------------|--------------------------|
A|--------------------------|--------------------------|
E|--3-----------------------|--3-----------------------|

E|--------------2-----------|--------------0-----------|
B|--------3--------3-----3--|--------2--------2-----2--|
G|-----2-----2--------2-----|-----2-----2--------2-----|
D|--0-----------------------|--------------------------|
A|--------------------------|--0-----------------------|
E|--------------------------|--------------------------|

E|-------------2h3-2--0--2--|-----------2--------------|
B|--------3-----------------|--------3-----------------|
G|-----2-----2--------------|-----2--------------------|
D|--0-----------------------|--0-----------------------|
A|--------------------------|--------------------------|
E|--------------------------|--------------------------|

Well dats all folks!  ....ACDC RULES!!!!!





Comments


Popular White Lion tabs & chords
Broken Heart 1 Chords
Farewell To You Chords
Love Dont Come Chords
You¹Re All I Need Chords
Farewell To You Tabs
Little Fighter Tabs
Lonely Nights Tabs
Sweet Little Loving Tabs
Its Over Ukulele
Till Death Do Us Part Ukulele


Song lyrics



↑ Back to top | Tablatures and chords are parodies/interpretations of the original songs. You may use it for private study, scholarship, research or language learning purposes only
© 2014 AZChords.com Contact us | Privacy policy | DMCA | Add/correct tabs | Request tabs | Top 50 tabs