» » »

White Lion, When The Children Cry Pt Tabs (ver.1)

Artists:  A B C D E F G H I J K L M N O P Q R S T U V W X Y Z # 

When The Children Cry Pt Tabs (ver.1)

White Lion Tabs
Rating:
0/5 (0 votes)
When The Children Cry Pt lessons Tabs too difficult? Try these video lessons and learn fast
                (When the Children Cry)part.3

                           White Lion
                  

                  
12-----12-----10-----8---7---10-----8-----7-----3---2---0----
--0---0--0---0--0--0---0---0----0--0--0--0--0--0--0---0------
----0------0------0---------------0-----0-----0--------------
-------------------------------------------------------------
-------------------------------------------------------------
0-----------------------------0-----------------3---2---0----


12-----10-----8---7---10-----8-----7-----------0-------------
--0---0---0--0---0--0---0--0---0--0--0---0--3--0-------------
----0-------0-------------0------0----0--0--4----------------
-------------------------------------------------------------
-------------------------------------------------------------
-----------------------0-----------------0--0--0-------------

----------------2-----0-------0------------------------------
---------0---3----3---1----1h3---1------------------0--3---3-
------0-------4----4--0------------0------------0--------4---
---4----4-------4--------2-----------2--------4---4----------
-2---------2------------3--------------------2--------2------
--------------------------------3------3-2-0-----------------

---0-------0--2----|--2h3p2p0------5-------10----------------
---1---1h3----3-3--|----------3/7---7--7---10----#7----------
---0--0-------2--2-|---------------------7-------#7----------
-----2-------------|-----------------------------------------
-------------------------------------------------------------
-------------------------------------------------------------

------------------------------------------2------0-------0---
0------0h1-----3----3----------------3------3----1----1h3----
--0----------2---2----0----- 0-2-0-----2------2--0-0-0-------
----0-------0-----0------2--2------4-----4----------2--------
------2--------------------2---------------------------------
-------------------------------------------------------------

---------------------------2------2h3p2p0--------------------
---1--------------------0----3--3----------3-----------------
-----0-------------0-----------2-----------------------------
-------2---------4---4---------------------------------------
---------------2---------------------------------------------
---------3-2-0-----------------------------------------------

--0-----0--------------2--------------------2------0-------0-
----1-----1------3-------3------------0--3----3--3-1--1-1h3--
------0-----0------2-------2-------0-------4----4--0---0-----
--------2-----4------4-----------4---4-----------------------
--------------------------------2-------2--------------------
-----------------------------3-0-----------------------------

-------------------------2--------3----------2---------------
--1--------------------0----3--------3-----------------------
----0--------------0-----------2--------2--------------------
-------2---------4---4------------0--------0-----------------
---------------2---------------------------------------------
---------3-2-0-----------------------------------------------

Notation:

         h: Hammer on
         
        #7: Harmonic

         p: Pull off

         /: Slide



My 1st time tabbing a song!

thats all i got! hope u enjoy!
            
Submit corrections

comments powered by Disqus
↑ Back to top | White Lion Tabs for When The Children Cry Pt. Lyrics for acoustic guitar and electric guitar. Tablatures and chords are parodies/interpretations of the original songs. You may use it for private study, scholarship, research or language learning purposes only