>
 >
Sweet Little Loving

Sweet Little Loving Guitar Tabs

White Lion - Sweet Little Loving chords, tabs, tablatures, lyrics

Guitar lessons | Add/correct | Request | Top 50 tabs Artists:  A B C D E F G H I J K L M N O P Q R S T U V W X Y Z 0-9

Sweet Little Loving Guitar Tabs – White Lion

CD, Sheet music, Poster

Do you like Sweet Little Loving? Share with your friends now
Tabs


Song Notes:

^ Denotes a pinch harmonic and not a natural harmonic, to do a pinch
harmonic snap the string with the pick and then gently 'pinch' between 
the pick and the bottom of your thumb.  Vito uses the pinch harmonic
often in a lot of songs so make sure you practice it a lot to get the right sound

Some of the trem work in this transcription may not be totally correct since
Vito uses a Steinberger guitar which allows the trem to be pulled or pushed,
so I tried my best to preserve the same sound.  Feel free to do your own thing
or if you are one of the lucky ones who own a Steinberger then you can do it
exactly like Vito.

Vito also uses sweep picking frequently in a lot of his fills, as seen in this song.

If you want some help with this technique go to:


This is an excellent site for beginners because it has tons of excercises
along with audio samples.  Enjoy!

White Lion Rules!!  Vive a Vito!!

------------------------------------------------------------------------------
------------------------------------------------------------------------------
----2--1--2--1--2----2--1--2--1-2---2--1--2--1--------------4-----4-----------
----2--2--2--2--2----2--2--2--2-2---2--2--2--2--------------2-----2-----------
-0---------------0---------------0-----------------x\-------------------------
-----------------------------------------------0---x\---0-0---0-0---0-0--3h4--
                                               ^Feedback (let ring)           

------------------------------------------------------------------------------
------------------------------------0-------------3----2-----0------0h2-------
----------------2-----1---------------2---------------------------------------
-2^-------------2-----2-----------------2-------------------------------1-2---
--------2^-------------------4h5-------------0-0----0-----0----0-0------------
----3h4-----0-0---0-0---0-0---------------------------------------------------
                                                                              

------------------------------------------------------------------------------
-0---2---3--------------------------------------------------------------------
----------------------------4-----4------------------------2-----1------------
----------------------------2-----2----------2^------------2-----2------------
---2---2----2222220---------------------------------2^-----------------4h5----
---------------------3--0-0---0-0---0-0--3h4----3h4----0-0---0-0---0-0--------
                                                                              

------------------------------------------------------------------------------
-0------------5---4---2-----2h4--------------------------------------7--------
---2-------------------------------2------------------4----------9-----9------
-----2-----------------------------2------------------2-----6--9---9-----9----
----------0-0---0---0---0-0--------0------------------------4--------------7--
------------------------------------------------------------------------------
                                                                              

----------12p11p9----9--------------------------------------------------------
-----------------12-9-12------------------------------------------------------
-------------------9-------------8h9h11-9-8h9p8\6------------------4-----4----
-9--7----------------------9--6------------------9--9--7-----------2-----2----
-7--7--7/9-----------------7--4---------------------7--7--7/9-----------------
-------5/7--------------0-0-------------------------------5/7--0-0---0-0------
                                                                              

------------------------------------------------------------------------------
------------------------------------------------------------------------------
------------------------4-----4---------------------4-----4-------------------
----------2^------------2-----2---------------------2-----2----------2^-------
-----------------2^-----------------2222220-----------------------------------
-0-0--3h4----3h4----0-0---0-0---0-0----------3--0-0---0-0---0-0--3h4----3h4---
                                                                              

------------------------------------------------------------------------------
----------------------------0-------------------------------------------------
---------2-----1--------------2----------4----4-------------------------2-----
---------2-----2----------------2--------2----2----------2^-------------2-----
-2^-------------------4h5---------------------------------------2^------------
-----0-0---0-0---0-0-----------------0-0--0-0---0-0--3h4----3h4-----0-0-------
                                                                              

------------------------------------------------------------------------------
-----------------0------------3---2---0-----0h2-----0---2---3-----------------
-----1-------------2----------------------------------------------------------
-----2---------------2--------------------------1-2---------------------------
-----------4h5----------------------------------------2---2---2222220---------
-0-0---0-0----------------0-0---0---0---0-0---------------------------3-------
                                                                              

------------------------------------------------------------------------------
----------------------------------------------------0---------5---4---2-------
-----4-----4------------------------2-----1-----------2-----------------------
-----2-----2----------2^------------2-----2-------------2---------------------
-----------------------------2^-----------------4h5-------0-0---0---0---0-0---
-0-0---0-0---0-0--3h4----3h4----0-0---0-0---0-0-------------------------------
                                                                              

--------------------------------------------------12p11p9----9----------------
-2h4----------------------------7------------------------12-9-12--------------
--------2--------4----------9-----9------------------------9------------------
--------2--------2-----6--9---9-----9---9--7--7/9-------------------9--6------
--------0--------------4--------------7-7--7--5/7-------------------7--4------
----------------------------------------------------------------0-0-----------
                                                                              

------------------------------------------------------------------------------
---------------------------------------7-7--7--7--7--7--7--7/9--7-7--7--7--7--
-8h9h11-9-8h9p8\6----------------7v----7-7--7--7--7--7--7--7/9--7-7--7--7--7--
-----------------9-9--7----------------7-7--7--7--7--7--7--7/9--7-7--7--7--7--
-------------------7--7--7/9--------------------------------------------------
-------------------------5/7-7\-----------------------------------------------
                                                                              

------------------------------------------------------------------------------
-7-7-7--7\--------------------------------------------------------------------
-7-7-7--7\--------------------------------------------7-----------------------
-7-7-7--7\-----7-----6-----4--------------4-4-4-4-6-7-------------------------
------------4-----4-----4-----4--6--7-----------------------------------------
------------------------------------------------------------------------------
                                                      ^ dive with tremolo     

------------------------------------------------------------------------------
------------------------------------------------------------------------------
------------------------------------------------------------------------------
------------------------------------------------------------------------------
-3h5p3h5p3h5p3h5p3h5p3h5p3h5p3h5p3h5p3h5/7------------------------------------
------------------------------------------------------------------------------
                                                                              

------------------------------------------------------------------------------
------------------------------------------------------------------------------
-5h7p5h7p5h7p5h7p5h7p5h7p5h7p5h7p5h7p5h7-7/9v---------------------------------
------------------------------------------------7---6---4-------4-4-4-4-6-7---
----------------------------------------------4---4---4---4-6-7---------------
------------------------------------------------------------------------------
                                                                              

-10-7h10------------------------------------------------------16-19-22--------
--------9-7h10----------------------------------------------17---------14b-17-
--------------9-7h10-----------------------------13/14-13/16------------------
--------------------9-6h9----------------12/14-12-----------------------------
-------------------------7\5\4\2-11/12-11-------------------------------------
--------------------------------0---------------------------------------------
                                                                              

------------------------------------------------------------------------------
-12-------12----------------------------------------------------------t19p12--
---9-11/13--13-11-------------------------------------------------------------
-----------------12v\11-t19p11h14-t18p11h14-t19p11h14-t18p11h14-t19p14--------
------------------------------------------------------------------------------
------------------------------------------------------------------------------
                                                                              

------------------------------------------------------------------------------
-t19p12h15-t19p12h15-t21p12h15-t22-----------14----------------14-------------
-------------------------------------------14--14------------14--14-----------
-----------------------------------------14------14--------14------14---------
-----------------------------------12vh15----------15-12h15----------15-------
------------------------------------------------------------------------------
                                                                              

-------------------------------------------19/21-19-17-16-14-12h14-12v--------
-14p12--12-15p14p12--14p12--12-15p14p12---------------------------------------
------14-----------14-----14-----------12-------------------------------------
------------------------------------------------------------------------------
------------------------------------------------------------------------------
------------------------------------------------------------------------------
                                                                              

------------------------------------------------------------------------------
------------------------------------------------------------------------------
-------------19^-----19^-----19^-----19^-------13^-13h14p13-------------------
-12h14/16/17----17h18---17h18---17h18---17-16^\------------14-12h14p12--------
----------------------------------------------------------------------14------
------------------------------------------------------------------------------
                                                                              

------------------------------------------------------------------------------
------------------------------------------------------------------------------
-13^-13h14p13--13^--------14^p13----------------14^p13------------------------
-------------14---14-12---------16-14--14-16-14-------16-14--14-16-14---------
-----------------------14------------14--------------------14-----------------
------------------------------------------------------------------------------
                                                                              

------------------------------------------------------------------------------
------------------------------------------------------------------------------
-14^p13-----14^p13------16/18-16v---------------------------------------------
-------16-14------16-14-------------------------------------------------------
------------------------------------------------------------------------------
------------------------------------------------------------------------------
                                                                              

------16v---------------------------------------------------------------------
------------------------------------------------------------------------------
-------------------------------------------------------9-9/11/13-13-11/13-13--
--------------4-4---------------------4-4-4-4-4-4-4-4-------------------------
--------------2-2-2-------------------2-2-2-2-2-2-2-2-------------------------
-0----------------0-----------------------------------------------------------
 ^ Bend trem down then slowly let up while making a bunch of sliding string   

------------------------------------------------------------------------------
------------------------------------------------------------------------------
-13\4/6-6-6/8-9\8\6\4/9-9/11/13-13-11/13-13-13\4/6-6-6/8v-----2---1----2------
--------------------------------------------------------------2---2----2------
--------------------------------------------------------------0-0--0-0---0-0--
------------------------------------------------------------------------------
 noise then hit note (16) then do a dive bomb                                 

------------------------------------------------------------------------------
------------------------------------------------------------------------------
-1-----7-----6-----7-------6-7----2---1-----2-----1-2-------------------------
-2-----7-----7-----7-------7-7----2---2-----2-----2-2-----2^-------2^-----2^--
---------0-0---0-0---0-0-0--------0-0---0-0---0-0-----------------------------
------------------------------------------------------3h4----0-3h4----3h4-----
                                                                              

------------------------------------------------------------------------------
------------------------------------------------------------------------------
-----2--1--2--1----2--1--2--1----2--1--2--1-----------------------------------
-----2--2--2--2----2--2--2--2----2--2--2--2----2------------------------------
-----0----------0--0----------0--0-------------2------------------------------
-3-0-------------------------------------------0------------------------------


================================================================================





Comments


Popular White Lion tabs & chords
Till Death Do Us Bass Tabs
Till Death Do Us Part Chords
Lady Of The Valley Tabs
Little Fighter 1 Tabs
When The Children Cry Tabs
When The Children Cry 1 Tabs
Youre All I Need Tabs
Youre All That I Need 4 Tabs
Broken Heart Ukulele
Its Over Ukulele


Song lyrics



↑ Back to top | Tablatures and chords are parodies/interpretations of the original songs. You may use it for private study, scholarship, research or language learning purposes only
© 2014 AZChords.com Contact us | Privacy policy | DMCA | Add/correct tabs | Request tabs | Top 50 tabs