>
 >
Hungry

Hungry Guitar Tabs

White Lion - Hungry chords, tabs, tablatures, lyrics

Guitar lessons | Add/correct | Request | Top 50 tabs Artists:  A B C D E F G H I J K L M N O P Q R S T U V W X Y Z 0-9

Hungry Guitar Tabs – White Lion

CD, Sheet music, Poster

Do you like Hungry? Share with your friends now
Tabs
Hungry By White Lion

Vito Bratta Rhytym


Turning : Standard
     
     
|-----------------------------|--------------------------|
|-----------------------------|--------------------------|
|-----------------------------|---------------------0----|
|-----------------------------|---------------------0----|
|--------10--------9p--7------|--------10-----9-----x----|
|--0--0------0--0---------8~--|--L--8------8-----0--3----|

-----------------------------|
-----------------------------|
-----------------------------|
-----------------------------|
--------10--------9p--7------|
--0--0------0--0---------8~--|


---------------------------------------------------------|
---------------------------------------------------------|
---------------------------------------------------------|
-------------------------9h-10h-12-----------9h-10-9-----|
---------------9h-10h-12-----------9h-10h-12-------------|
--L--8h-10h-12----------------------------------------0--|


-------------------------------|--------------------------|
-------------------------------|--------------------------|
-------------------------------|---------------------0----|
-------------------------------|---------------------0----|
----------10--------9p--7------|--------10-----9-----x----|
--(0)--0------0--0---------8~--|--L--8------8-----0--3----|


-----------------------------|------------------------------------|
-----------------------------|------------------------------------|
-----------------------------|---------------<>5----L---<>(5)--9--|
-----------------------------|---------------<>5----L---<>(5)--9--|
--------10--------9p--7------|-----<>7--<>5--------------------7--|
--0--0------0--0---------8~--|--L--<>7----------------------------|


---------------------|------------------------|---------------------|
---------------------|------------------------|---------------------|
--L\-----------------|--------------9-----9~--|--L\-----------------|
--L\-----------------|--------------9-----9~--|--L\-----------------|
--L\-----------------|--------------7-----7~--|--L\-----------------|
---------------------|------------------------|---------------------|


------------------------|--------------2h-3p-2--------|
------------------------|-----------------------------|
------------------------|-----------------------------|
------------------------|--------5--------------------|
------------------------|--/5-------------------------|
--------------/17\------|-----------------------3--2--|


--------------0-----------|--------------------------|
-----3-----------3--------|--------------------------|
--------2-----------2--7--|--L--9--9-----------------|
-----------4-----------7--|--L--9--9-----------------|
-----------------------5--|--L--7--7-----------0--2--|
--L-----------------------|-----------0--2--3--------|


--------------------------|---------------------------|
--------------------------|---------------------------|
--------------------------|--9~-------------7-----7~--|
--------------------------|--9--------------7-----7~--|
--3--------------2--------|--7--------------5-----5~--|
-----0--2--3--0-----3~----|--------0--0--0-----0------|


-------------------------|-----------------------------|
-------------------------|-------------10p--9--9S--7---|
--L-------------9-----9--|--L------------------9S--7~--|
--L-------------9-----9--|--L--------------------------|
--L-------------7-----7--|--L--------------------------|
-------0--0--0-----0-----|-------0--0------------------|

  
-------------------------|--------------2h-3-2--------|
--L----------------------|----------------------------|
--L-------------7--------|----------------------------|
----------------7--------|--------5-------------------|
----------------5--------|--/5------------------------|
-------0--0--0-----0--0--|----------------------3--2--|


--------------0-----------|--------------------------|
-----3-----------3--------|--------------------------|
--------2-----------2--7--|--L--9--9-----------------|
-----------4-----------7--|--L--9--9-----------------|
-----------------------5--|--L--7--7-----------0--2--|
--L-----------------------|-----------0--2--3--------|


--------------------------|----------------------|--------------------------|
--------------------------|-------------------5--|--L-----------5-----------|
--------------------------|--5~------------------|-----4-----4-----4--------|
--------------------------|--5~------------5-----|--------5-----------5~----|
--3-----------------------|----------------------|--------------------------|
-----0--2--3--0--2--3--0--|----------------------|--------------------------|



------------------------------17h-|
---------------15g15br--L-12------|
--5~------------------------------|
--5-------------------------------|
----------------------------------|
----------------------------------|


--12h-15-17p-15p-14p-12h-14p-12------------------------------------------------|
--------------------------------15-17p-15p-14p-12------------------------------|
--------------------------------------------------15-17p-15p-14p-11h-12--L\----|
-------------------------------------------------------------------------------|
-------------------------------------------------------------------------------|
-------------------------------------------------------------------------------|


  
---------------------|---------------------------|---------------------------|
---------------------|-----4--------5p--4--------|-----5--------7p--5--------|
--2------------L-----|--------4------------4-----|--------5------------5-----|
--2------------L-----|-----------4---------------|-----------5---------------|
--0------------L--6--|--L---------------------7--|--L------------------------|
---------------------|---------------------------|---------------------------|


------------------------------------------------------|
------------------------------------------------------|
--------------------5h-7h-9-----------5h--7h-9--7~----|
-----------5h-7h-9-----------5h-7h-9------------------|
--5h-7h-9---------------------------------------------|
------------------------------------------------------|


----------------------------|--------------------------|
----------------------------|--------------------------|
--------9-------------------|---------------------0----|
--------9-------------------|---------------------0----|
--------7------------7------|--------10-----9-----x----|
--0--0-----0--0--10-----8~--|--L--8------8-----0--3----|


---------------------------|--------------------------|
---------------------------|--------------------------|
--------9------------------|--------------------------|
--------9-----------9--10--|--L--9--7--5--7--5--4-----|
--------7----10--7------7--|--L--7--7--5-----------5--|
--0--0---------------------|--------------------------|


---------------------------|---------------------------|
---------------------------|---------------------------|
--------9--------9---------|---------------------------|
--------9--------9---------|---------------------------|
--------7--------7---------|--------10-----9-----------|
--0--0-----0--0-----0--8~--|--L--8------8-----0--3~----|


---------------------------|-----------------------------|---------------------|
---------------------------|-----------7h-8p-7-----------|---------------------|
--------9------------------|--------------------7--9--9--|--L\-----------------|
--------9-----------9--10--|--L--9-----------------9--9--|--L\-----------------|
--------7----10--7------7--|--L--7-----------------7--7--|--L\-----------------|
--0--0---------------------|-----------------------------|---------------------|


------------------------|-----------------------|------------------------|
--------------7-----7~--|--L----L\--------------|------------------------|
--------------7-----7---|--L----L\--------------|------------------------|
--------------6-----6---|--L----L\--------------|------------------------|
------------------------|-----------------------|------------------------|
------------------------|-----------------------|--------------/17\------|


--------------2h-3p-2--------|--------------0-----------|
-----------------------------|-----3-----------3--------|
-----------------------------|--------2-----------2--7--|
--------5--------------------|-----------4-----------7--|
--/5-------------------------|-----------------------5--|
-----------------------3--2--|--L-----------------------|


--------------------------|--------------------------|
--------------------------|--------------------------|
--L--9--9-----------------|--------------------------|
--L--9--9-----------------|--------------------------|
--L--7--7-----------0--2--|--3--------------2--------|
-----------0--2--3--------|-----0--2--3--0-----3~----|


---------------------------|-------------------------|
---------------------------|-------------------------|
--9~-------------7-----7~--|--L-------------9-----9--|
--9--------------7-----7~--|--L-------------9-----9--|
--7--------------5-----5~--|--L-------------7-----7--|
--------0--0--0-----0------|-------0--0--0-----0-----|


-----------------------------|-------------------------|
-------------10p--9--9S--7---|--L----------------------|
--L------------------9S--7~--|--L-------------7--------|
--L--------------------------|----------------7--------|
--L--------------------------|----------------5--------|
-------0--0------------------|-------0--0--0-----0--0--|


--------------2h-3-2--------|--------------0-----------|
----------------------------|-----3-----------3--------|
----------------------------|--------2-----------2--7--|
--------5-------------------|-----------4-----------7--|
--/5------------------------|-----------------------5--|
----------------------3--2--|--L-----------------------|



--------------------------|--------------------------|----------------------|
--------------------------|--------------------------|-------------------5--|
--L--9--9-----------------|--------------------------|--5~------------------|
--L--9--9-----------------|--------------------------|--5~------------5-----|
--L--7--7-----------0--2--|--3-----------------------|----------------------|
-----------0--2--3--------|-----0--2--3--0--2--3--0--|----------------------|


------------------------0--|------------12----14----15----|
--L-----------5---------0--|------------------------------|
-----4-----4-----4---------|--5~--------------------------|
--------5-----------5~-----|--5---------------------------|
---------------------------|------------------------------|
---------------------------|------------------------------|


--17----19----22----22b~--------|---------------------|
--------------------------------|---------------------|
--------------------------------|--2------------L-----|
--------------------------------|--2------------L-----|
--------------------------------|--0------------L--6--|
--------------------------------|---------------------|


---------------------------|---------------------------|
-----4--------5p--4--------|-----5--------7p--5--------|
--------4------------4-----|--------5------------5-----|
-----------4---------------|-----------5---------------|
--L---------------------7--|--L------------------------|
---------------------------|---------------------------|



--19p-12h-17------------19p-12h-17------------19p-12----------------------------
-------------19p-12h-17------------19p-12h-17-----------------------------------
-----------------------------------------------------17-19p-12h-17--------------
-------------------------------------------------------------------19p-12h-17-19
--------------------------------------------------------------------------------
--------------------------------------------------------------------------------


----------------------------|--------------------------|
----------------------------|--------------------------|
--------9-------------------|---------------------0----|
--------9-------------------|---------------------0----|
--------7------------7------|--------10-----9-----x----|
--0--0-----0--0--10-----8~--|--L--8------8-----0--3----|


---------------------------|--------------------------|
---------------------------|--------------------------|
--------9------------------|--------------------------|
--------9-----------9--10--|--L--9--7--5--7--5--4-----|
--------7----10--7------7--|--L--7--7--5-----------5--|
--0--0---------------------|--------------------------|


---------------------------|---------------------------|-------------------|
---------------------------|---------------------------|-------------------|
--------9--------9---------|---------------------------|--9----------------|
--------9--------9---------|---------------------------|--9----------------|
--------7--------7---------|--------10-----9-----------|--7----------------|
--0--0-----0--0-----0--8~--|--L--8------8-----0--3~----|-------------------|


-----------0---------|--L------------L------|--------------------------|
-----------3---------|--L------------L------|--------------------------|
-----------2---------|--L------------L------|-----0------------0-------|
-----------0~--------|--L------------L------|--------4------2-----2----|
---------------------|------------------3S--|--5--------5S--3-----3----|
---------------------|----------------------|--------------------------|


--0~----------------|--L---------------------|--0-------------L------|
--0-----------------|--L---------------------|--0-------------L------|
--0-----------------|--L---------------------|--0~------------L------|
--2-----------------|--L--------4------/(2)--|--2-------------L------|
--2-----------------|--L--------5------/(3)--|--3-------------L--3S--|
--0-----------------|--L---------------------|-----------------------|


--------------------------|--0~----------------|--L---------------------|
--------------------------|--0-----------------|--L---------------------|
-----0------------0-------|--0-----------------|--L---------------------|
--------4------2-----2----|--2-----------------|--L--------4------/(2)--|
--5--------5S--3-----3----|--2-----------------|--L--------5------/(3)--|
--------------------------|--0-----------------|--L---------------------|


--0-------------L------|--------------------------|--0~----------------|
--0-------------L------|--------------------------|--0-----------------|
--0~------------L------|-----0------------0-------|--0-----------------|
--2-------------L------|--------4------2-----2----|--2-----------------|
--3-------------L--3S--|--5--------5S--3-----3----|--2-----------------|
-----------------------|--------------------------|--0-----------------|


--L---------------------|--0-------------L------|--------------------------|
--L---------------------|--0-------------L------|--------------------------|
--L---------------------|--0~------------L------|-----0------------0-------|
--L--------4------/(2)--|--2-------------L------|--------4------2-----2----|
--L--------5------/(3)--|--3-------------L--3S--|--5--------5S--3-----3----|
--L---------------------|-----------------------|--------------------------|


-------------------------|-------------------------|------------------------|
-------------------------|-------------------------|------------------------|
-----4--4--4--4----------|-----5--5--5--5----------|------------------------|
-----4--4--4--4----------|-----5--5--5--5----------|--------2----------5----|
-----2--2--2--2----------|-----3--3--3--3----------|--------2----------5----|
-------------------------|----------------------0--|--L--0--0----3--3--3----|



------------------------|------------------------|------------------------|
------------------------|------------------------|------------------------|
--------5----------4----|------------------------|--------5----------4----|
--------5----------4----|--------2----------5----|--------5----------4----|
--3--3--3----2--2--2----|--------2----------5----|--3--3--3----2--2--2----|
------------------------|--0--0--0----3--3--3----|------------------------|


------------------------|------------------------|------------------------|
------------------------|------------------------|------------------------|
------------------------|--------5----------4----|------------------------|
--------2----------5----|--------5----------4----|--------2----------5----|
--------2----------5----|--3--3--3----2--2--2----|--------2----------5----|
--0--0--0----3--3--3----|------------------------|--L--0--0----3--3--3----|


------------------------|--------------------------|--------------------------|
------------------------|--------------------------|--------------------------|
--------5----------4----|--------------------------|--------------------------|
--------5----------4----|--------------------------|--------------------------|
--3--3--3----2--2--2----|-----------4--------4-----|-----------4--------4-----|
------------------------|--2--2--2-----2--2-----2--|--2--2--2-----2--2-----2--|


--------------------------|--------------------------|
--------------------------|--------------------------|
--------------------------|-----------2--------2-----|
--------------------------|--------------------------|
-----------5--------------|--0--0--0-----0--0-----0--|
--3--3--3-----3--3--3--3--|--------------------------|


---------------------------|---------------------------|
------------5----4~--------|---------------------------|
---------------------------|---------------------------|
-------4-------------------|-----------2---------------|
--2------------------------|--2--0--0--0---------------|
---------------------------|--------------3--3--2p--0--|


---------------------------|-------------------------|
---------------------------|-------------------------|
--9~-------------7-----7~--|--L-------------9-----9--|
--9--------------7-----7~--|--L-------------9-----9--|
--7--------------5-----5~--|--L-------------7-----7--|
--------0--0--0-----0------|-------0--0--0-----0-----|


---------------------------|-----------------------|
-------------10p--9-----7--|--L--------------------|
--L---------------------7--|--L--------------------|
--L---------------------7--|--L--------------------|
--L------------------0-----|-----------------------|
-------0--0----------------|---------------/12\----|



--------------2h-3p-2--------|--------------0-----------|
-----------------------------|-----3-----------3--------|
-----------------------------|--------2-----------2--7--|
--------5--------------------|-----------4-----------7--|
--/5-------------------------|-----------------------5--|
-----------------------3--2--|--L-----------------------|


--------------------------|--------------------------|----------------------|
--------------------------|--------------------------|-------------------5--|
--L--9--9-----------------|--------------------------|--5~------------------|
--L--9--9-----------------|--------------------------|--5~------------5-----|
--L--7--7-----------0--2--|--3-----------------------|----------------------|
-----------0--2--3--------|-----0--2--3--0--2--3--0--|----------------------|


--------------------------|-----------------------|
--L-----------5-----------|-----------------------|
-----4-----4-----4-----4--|--5~-------------------|
--------5-----------5-----|--5--------------------|
--------------------------|----------------12\----|
--------------------------|-----------------------|


---------------------------------------------------|---------------------|
---------------------------------------------------|---------------------|
---------------------------------------------------|--2------------L-----|
--2--------------------2---2-2---2-2---2-2---2\----|--2------------L-----|
--2--------------------2---2-2---2-2---2-2---2\----|--0------------L--6--|
---------------------------------------------------|---------------------|


---------------------------|---------------------------|
-----4--------5p--4--------|-----5--------7p--5--------|
--------4------------4-----|--------5------------5-----|
-----------4---------------|-----------5---------------|
--L---------------------7--|--L------------------------|
---------------------------|---------------------------|


---------------------------------------------------------------------|
--12h-15p-12-----12h-15p-12-----12h-15p-12-----12h-15p-12-----15b----|
-------------14b------------14b------------14b------------14b--------|
---------------------------------------------------------------------|
---------------------------------------------------------------------|
---------------------------------------------------------------------|


----------------------------|--------------------------|
----------------------------|--------------------------|
--------9-------------------|---------------------0----|
--------9-------------------|---------------------0----|
--------7------------7------|--------10-----9-----x----|
--0--0-----0--0--10-----8~--|--L--8------8-----0--3----|



---------------------------|--------------------------|
---------------------------|--------------------------|
--------9------------------|--------------------------|
--------9-----------9--10--|--L--9--7--5--7--5--4-----|
--------7----10--7------7--|--L--7--7--5-----------5--|
--0--0---------------------|--------------------------|


----------------------------|--------------------------|
----------------------------|--------------------------|
--------9-------------------|---------------------0----|
--------9-------------------|---------------------0----|
--------7------------7------|--------10-----9-----x----|
--0--0-----0--0--10-----8~--|--L--8------8-----0--3----|


---------------------------|--------------------------|
---------------------------|--------------------------|
--------9------------------|--------------------------|
--------9-----------9--10--|--L--9--7--5--7--5--4-----|
--------7----10--7------7--|--L--7--7--5-----------5--|
--0--0---------------------|--------------------------|


----------------------------|--------------------------|
----------------------------|--------------------------|
--------9-------------------|---------------------0----|
--------9-------------------|---------------------0----|
--------7------------7------|--------10-----9-----x----|
--0--0-----0--0--10-----8~--|--L--8------8-----0--3----|


---------------------------|--------------------------|------------------------|
---------------------------|--------------------------|------------------------|
--------9------------------|--------------------------|-------9----------------|
--------9-----------9--10--|--L--9--7--5--7--5--4-----|-------9----------------|
--------7----10--7------7--|--L--7--7--5-----------5--|-------7----7-----7-----|
--0--0---------------------|--------------------------|--0------------0--------|


-------------------|-----------------------------|---------------------------|
-------------------|-----------------------------|---------------------------|
-------------------|-----------------------------|---------------------------|
-------------------|-----------------------------|---------------------------|
-------------------|--------10--------9p--7------|--------10-----9-----------|
-------------------|--0--0------0--0---------8~--|--L--8------8-----0--3--0--|


-----------------------------|----------------------------------|
-----------------------------|----------------------------------|
-----------------------------|-----0--<>7--<>5--L--<>5--<>5-----|
-----------------------------|-----0--<>7--<>5--L--<>5--<>5-----|
--------10--------9p--7------|----------------------------------|
--L--0------0--0---------8~--|--L----------------------------0--|



-----------------------------|---------------------------||
-----------------------------|---------------------------||
-----------------------------|---------------------0-----||
-----------------------------|---------------------0-----||
--------10--------9p--7------|--------10-----------x-----||
--L--0------0--0---------8~--|--L--8------8--8--7--3-----||





Comments


Popular White Lion tabs & chords
Little Fighter Chords
When The Children Cry Chords
When The Children Cry 1 Chords
When The Children Cry 4 Chords
All Join Our Hands Tabs
Hungry Intro Tabs
Radar Love Tabs
When The Children Cry Pt Tabs
Youre All That I Need Tabs
Broken Heart Ukulele


Song lyrics



↑ Back to top | Tablatures and chords are parodies/interpretations of the original songs. You may use it for private study, scholarship, research or language learning purposes only
© 2014 AZChords.com Contact us | Privacy policy | DMCA | Add/correct tabs | Request tabs | Top 50 tabs