» » »

Whitecross, Who Will You Follow Tabs (ver.1)

Artists:  A B C D E F G H I J K L M N O P Q R S T U V W X Y Z # 

Who Will You Follow Tabs (ver.1)

Whitecross Tabs
Rating:
2/5 (2 votes)
Who Will You Follow lessons Tabs too difficult? Try these video lessons and learn fast
                  Band:Whitecross
  CD:Whitecross
  Copyright:c 1987 Girder Music/BMI
    -Play tab in sequence unless noted-


   INTRO:
    RIFF 1 play 4x's
  e---------------------------------------------------------|Fill 1
  B--10--10--9-----8--8--7----10--10--9-----8--8--7-----6p5-|1st time
  G---9---9--9-----7--7--7-----9---9--9-----7--7--7-----5---|
  D---9---9--9-p.m.7--7--7-p.m.9---9--9-p.m.7--7--7-p.m.5---|
  A---0---0--0-000-0--0--0-000-0---0--0-000-0--0--0-000-0---|
  E---------------------------------------------------------|

                             VERSE:
    FILL 1                    RIFF 2
  e----------------|-|-----|---------------------------------------|
  B----------------|-|-----|---------------------------------------|
  G--------------2-|-|-2-0-|-2-----2-2----------2-----2-2----------|
  D--------------2-|-|-2-0-|-2-p.m.2-2-pm-------2-p.m.2-2-pm-------|
  A------0-3-0---0-|-|-0---|-0-000-0-0-00-3p2p0-0-000-0-0-00-3p2p0-|
  E--0-3-------3---|-|---3-|---------------------------------------|


  e--------------------------|---------------------------------------|
  B-sl-----------------------|---------------------------------------|
  G--/5-------0----------2-0-|-2-----2-2----------2-----2-2----------|
  D--/5-------0----------2-0-|-2-p.m.2-2-pm-------2-p.m.2-2-pm-------|
  A-----3p2p0------------0---|-0-000-0-0-00-3p2p0-0-000-0-0-00-3p2p0-|
  E-----------3--0-3-0-3---3-|---------------------------------------|


  e------------------------------------------------------------------|
  B-sl---------------------------------------------------------------|
  G--\5-------0------------------------------------------------------|
  D--\5-------0------------------------------------------------------|
  A-----3p2p0-----------3-2p0---3-2p0--------------------------------|
  E-----------3-3-0-3-1-------1-------3b(slowly bend note to full)---|

    RIFF 3
  e----------------------------------|
  B----------------------------------|
  G----------------------------------|
  D----------------------------------|
  A--3-2p0---3-2p0---3-2p0---3-2p0---|
  E--------1-------1-------3-------3-|
     -Play RIFF 1 2x's for CHORUS-
     -VERSE RIFF 2 then RIFF 3-

   SOLO SECTION:
    RIFF 4 4x's                      4th time hold A and dive bomb
  e--------------------------------|------------------------|
  B--------------------------------|------------------------|
  G------------------2-----2-----2-|--2---------------------|
  D------------------2-p.m-2-p.m-2-|--2---------------------|
  A--3-p.m-3-5-p.m-5-0-000-0-000-0-|--0`long slow trem dive-|
  E--1-111-1-3-333-3---------------|------------------------|
   -Play RIFF 1 4x's for CHORUS and fade out-


  Any Q's or com's email Ed at
            

comments powered by Disqus
↑ Back to top | Whitecross Tabs for Who Will You Follow. Lyrics for acoustic guitar and electric guitar. Tablatures and chords are parodies/interpretations of the original songs. You may use it for private study, scholarship, research or language learning purposes only