>
 >
The Hammer And Nail

The Hammer And Nail Guitar Tabs

Whitecross - The Hammer And Nail chords, tabs, tablatures, lyrics

Guitar lessons | Add/correct | Request | Top 50 tabs Artists:  A B C D E F G H I J K L M N O P Q R S T U V W X Y Z 0-9

The Hammer And Nail Guitar Tabs – Whitecross

CD, Sheet music, Poster

Do you like The Hammer And Nail? Share with your friends now
Tabs
THE HAMMER AND THE NAIL
As recorded by WHITECROSS
(From the 1988 Album WHITECROSS)



 Music by REX CAROLL
Arranged by Justin r
 

C
x 3 2 0 1 0 


Gtr I (E A D G B E) - 'Untitled'


 Intro
  Q=120
  N.C.
 4/4
  Gtr I
                                           ~~~~~~~~~~~~~~~~~~~~~
                                                                       |--3--|
   Q.       +E   +Q    +S   +E    S    E  +Q.    +H        +H..        S  S  S
|-----------------------------------|-------------------|-------------------17-|
|-20b22====(20)-(20)--(20)-(20)rp17-|-20-(20)---(20)----|-(20)--------17-20----|
|-----------------------------------|-------------------|----------------------|
|-----------------------------------|-------------------|----------------------|
|-----------------------------------|-------------------|----------------------|
|-----------------------------------|-------------------|----------------------|


 5/4
                                                         |--3--|                                      |------6-------|  |--3--|
   T  T  T  T  T  T  T  T  T  T  T  T  T  T  T  T  T  T  T  T  T  T  T  T  T  T  T  T  T  T  T  T  T  T  T  T  T  T  T  S  S  S
|-20-17-19-17----17-------------------------------------------------------------------------------------------------------------|
|-------------20----20p17----17-20-17-------------------------------------------------------------------------------------------|
|-------------------------19----------19-17-19-17-16----16h17p16----------------------------------------------------------------|
|----------------------------------------------------19----------19-17-19-17----------17----------------------------------------|
|----------------------------------------------------------------------------19p17-19----19s17-15-17-15----------------15-17s19-|
|-------------------------------------------------------------------------------------------------------17p15h17p15h17----------|


 4/4
   ~~~
   H.       +E   E
|------------------|
|------------------|
|------------------|
|------------------|
|------------------|
|-17-------(17)\---|


  Q=114
 4/4
    <     <    <
    S S   S S  S  S   S S  S S  S S S S  S S
|-h14---h10---12p10-------10p7------8p5------|
|-------------------h12--------10-------h8---|
|--------------------------------------------|
|--------------------------------------------|
|--------------------------------------------|
|--------------------------------------------|


   S S S S S S  S S  S S S S S S  S S
|-h5-----------------------------------|
|----8p5---8p5------h5-----------------|
|--------------h7------7p5---7p5-------|
|--------------------------------h7----|
|--------------------------------------|
|--------------------------------------|


   S S  S S  S S  S S E S S S S  S S
|----------------h5-------------h8---|
|-h7--------------------7h8p7h8------|
|------h5---h4-----------------------|
|------------------------------------|
|------------------------------------|
|------------------------------------|


   S  S   S S  S  S   S S  S  S   S S  S  S   S S
|-------h10---------h13---------h17---------h17---|
|-10h13-------13h15-------17h18-------17h20-------|
|-------------------------------------------------|
|-------------------------------------------------|
|-------------------------------------------------|
|-------------------------------------------------|


   S  S  S S  S S  S S  S S  S S  S S  S S
|----22-20---19-------------20-------------|
|-20--------------20---22--------20---22---|
|------------------------------------------|
|------------------------------------------|
|------------------------------------------|
|------------------------------------------|


   S S  S S  S S  S S  S S  S S  S S  S S
|-19-------------20------------------20---|
|------20---22--------20---22---19--------|
|-----------------------------------------|
|-----------------------------------------|
|-----------------------------------------|
|-----------------------------------------|


                        Q=162
                        Am
                          5/4
                           |-3-|  |-3-| |-3-| |-3-|
   S S  S S  E   E  +H     E E E  E E E E E E E E E S S S S
|-19------------20-(20)-||-8p5------------------------------|
|------20---22----------||-----5h10p5-----------------------|
|-----------------------||------------5h9p5---5-------------|
|-----------------------||------------------7---7---7-------|
|-----------------------||------------------------7---7-----|
|-----------------------||------------------------------8p5-|


  F
  |-3--| |--3--|  |--3--|  |--3--|  |--3--|
  E E  E E  E  E  E  E  E  E  E  E  E  E  E
|----------------------------------------13-|
|-------------------------------13-10h13----|
|-------------10----10h14-10h14-------------|
|---7h10p7h10----10-------------------------|
|-8-----------------------------------------|
|-------------------------------------------|


  G
 6/4
   |--3--|  |-3-| |-3-| |-3-| |-3-| |3|
   E  E  E  E E E E E E E E E E E E Q E
|-15p10----10p7---7----------------------|
|-------12------8---8---8----------------|
|---------------------7---7---7p4--------|
|---------------------------9-----5---5--|
|-----------------------------------5----|
|----------------------------------------|


  C                          B
 4/4                        5/4
  |3| |-3-|          |-3-|    |-3--|  |-3-|  |-3-| |-3-|  |-3-|
  E Q E E E S S S S  E E E    E  E E  E E E  E E E E E E  E E E
|-----------------8-12-8---|-13-10-7-10-7-----------------------|
|---------------8--------9-|--------------9-12-9-6-9-6----------|
|-----0-5-9-5-9------------|---------------------------7-10-7---|
|-2h5----------------------|----------------------------------9-|
|--------------------------|------------------------------------|
|--------------------------|------------------------------------|


  Q=126
  C                 Dm
 2/4
  S S S S S S S S    S  S  S  S  S  S  S  S
|---------5---8p5-|-------------10----13p10-|
|-----------5-----|----------------10-------|
|---5-9p5---------|----10-14p10-------------|
|-7---------------|-12----------------------|
|-----------------|-------------------------|
|-----------------|-------------------------|


  Am
   S  S  S  S  S S  S S    S  S  S  S  S S S S
|-17p12-------12p8------|-18p12-------12p7-------|
|-------13---------10---|-------12---------9-----|
|----------14---------9-|----------13--------7\--|
|-----------------------|------------------------|
|-----------------------|------------------------|
|-----------------------|------------------------|


  Am                            F
 4/4
                                 |-----5-----|  |-----5-----|
  S S S S  S S  S S  Q.   +E     S  S  S  S  S  S  S  S  S  S  Q.  +E
|-----5-8s12p8----------------|-------------17-20p17--------------------|
|---5----------10-------------|----------18----------18-----------------|
|-5---------------9-----------|-------17----------------17--------------|
|-------------------10---(10)-|----19----------------------19-----------|
|-----------------------------|-20----------------------------20--(20)\-|
|-----------------------------|-----------------------------------------|


  Am
   |----5----|  |----5----|
   S  S S  S S  S S  S S  S  Q.   +E
|------------8-12p8--------------------|
|---------10--------10-----------------|
|-------9--------------9---------------|
|----10------------------10------------|
|-12------------------------12---(12)\-|
|--------------------------------------|


  Dm
   |-----5-----|  |-----5-----|
   S  S  S  S  S  S  S  S  S  S  Q.   +E
|-------------13-17p13----------------------|
|----------15----------15-------------------|
|-------14----------------14----------------|
|----15----------------------15-------------|
|-17----------------------------17---(17)\--|
|-------------------------------------------|


  Am                                 E
                                                                    ~~
   |---5---|  |---5---|               |-----5-----|  |-----5-----|
   S S S S S  S S S S S  Q.   +E      S  S  S  S  S  S  S  S  S  S  Q E  S  S
|----------7-10p7------------------|-------------16-19p16------------------19-|
|--------8--------8----------------|----------17----------17------------21----|
|------7------------7--------------|-------16----------------16---------------|
|----9----------------9------------|----18----------------------18------------|
|-10--------------------10---(10)\-|-19----------------------------19---------|
|----------------------------------|------------------------------------------|


  G#7
   S  S  S  S  S  S  S  S  S  S  S  S  S  S  S  S
|-22p19-------19p16-------16----------------------|
|-------21----------18-------18p15----18p15-------|
|----------22----------19----------16-------16----|
|----------------------------------------------18-|
|-------------------------------------------------|
|-------------------------------------------------|


 5/4
   S  S  S  S  S  S  S  S  S  S  S  S  S  S  S  S  S  S  E
|----------------------------------------------------------|
|-15p12-------12-------------------------------------------|
|-------13-------13----------------------------------------|
|----------15-------15p12-15p12----------------------------|
|-------------------------------14p11-14p11----------------|
|-------------------------------------------13p10-13p10h12-|


 4/4              2/4
                   ~~
  W                Q.                S  S
|----------------|------------------------|
|----------------|------------------------|
|----------------|-9\----------------9h10-|
|----------------|------------------------|
|----------------|------------------------|
|-0--------------|------------------------|


 6/4
  |-----6------| |-----6------|  |----5----|  |----5----|  |----5----|  |-3--|
  S  S S  S S  S S  S S  S S  S  S S  S S  S  S S  S S  S  S S  S S  S  E E  E
|------------------------------------------------------------------------------|
|-9-10-9---------9-10-9---------10-9---------10-9---------10-9---------10-9----|
|--------10-9-10--------10-9-10------10-9-10------10-9-10------10-9-10------10-|
|------------------------------------------------------------------------------|
|------------------------------------------------------------------------------|
|------------------------------------------------------------------------------|


 4/4
  H    +Q    Q
|---------------|
|---------------|
|-9----(9)\-----|
|---------------|
|---------------|
|---------------|


    Q=180
    Am
   4/4
     |--3--|  |--3--|  |--3--|  |--3--|
     E  E  E  E  E  E  E  E  E  E  E  E
||-----17-------17-------17-------17----|
||o-------17-------17-------17-------17-|
||--------------------------------------|
||--------------------------------------|
||o----------14-------15----------------|
||--17-------------------------17-------|


  D
   |--3--|  |--3--|  |--3--|  |--3--|
   E  E  E  E  E  E  E  E  E  E  E  E
|----22-------22-------22-------22------||
|-------21-------21-------21-------21--o||
|---------------------------------------||
|---------------------------------------||
|----------19-------20-----------------o||
|-22-------------------------22---------||


    Q=144
    C
     S  S  S  S  S  S  S  S  S  S  S  S  S  S  S  S
||--------20----------20----------20----------20----|
||o----20----20----20----20----20----20----20----20-|
||--------------------------------------------------|
||--------------------------17----------------------|
||o-------------19----------------------------------|
||--20----------------------------------20----------|


  G7
   S  S  S  S  S  S  S  S  S  S  S  S  S  S  S  S
|-------19----------19----------19----------19-----||
|----18----18----18----18----18----18----18----18-o||
|--------------------------------------------------||
|-------------------------15-----------------------||
|-------------17----------------------17----------o||
|-19-----------------------------------------------||


  F7
   S  S  S  S  S  S  S  S  S  S  S  S  S  S  S  S
|-------17----------17----------17----------17----|
|-------------------------------------------------|
|----17----17----17----17----17----17----17----17-|
|-------------------------13----------------------|
|-------------15----------------------15----------|
|-17----------------------------------------------|


  E7
   S  S  S  S  S  S  S  S  S  S  S  S  S  S  S  S
|-------16----------16----------16----------16----|
|-------------------------------------------------|
|----16----16----16----16----16----16----16----16-|
|-------------------------12----------------------|
|-------------14----------------------------------|
|-16----------------------------------16----------|


   S  S  S  S  S  S  S  S  S  S  S  S  S  S  S  S    W
|-------16----------16----------16----------16----|-------*|
|-------------------------------------------------|-------*|
|----16----16----16----16----16----16----16----16-|-------*|
|-------------------------------------12----------|-14----*|
|-------------------------14----------------------|-------*|
|-12----------16----------------------------------|-------*|





Comments


Popular Whitecross tabs & chords
Behold Tabs
Enough Is Enough Tabs
Flashpoint Tabs
My Love Tabs
Shakedown Tabs
Who Will You Follow Tabs


Song lyrics



↑ Back to top | Tablatures and chords are parodies/interpretations of the original songs. You may use it for private study, scholarship, research or language learning purposes only
© 2014 AZChords.com Contact us | Privacy policy | DMCA | Add/correct tabs | Request tabs | Top 50 tabs