>
 >
My Love

My Love Guitar Tabs

Whitecross - My Love chords, tabs, tablatures, lyrics

Guitar lessons | Add/correct | Request | Top 50 tabs Artists:  A B C D E F G H I J K L M N O P Q R S T U V W X Y Z 0-9

My Love Guitar Tabs – Whitecross

CD, Sheet music, Poster

Do you like My Love? Share with your friends now
Tabs

This is my first attempt at a Tab! I love this song, but never could find an accurate 
transcription,
so I figured I'd give it a go! ***I did not include palm mute notation or other accents 
please flavour it to taste!***
I will attempt the solo/lead parts at a later date. Please feel free to make corrections!

tuning: Eb (1/2 step down)

Intro (Pattern A) x2

Eb|----------1p0h1---------1p0h1--------------1p0h1--------------------------|
Bb|--------3--------3----3------3-----------3-------3-------5h6------5h6-----|
Gb|------2-------------2---------2--------3---------------4--------3---------|
Db|----0-------------0------------------0---------------0--------0-----------|
Ab|--------------------------------------------------------------------------|
Eb|--------------------------------------------------------------------------|


Eb|----------1p0h1---------1p0h1--------------1p0h1--------------------------|
Bb|--------3--------3----3------3-----------3-------3-------5h6------5h6-----|
Gb|------2-------------2---------2--------3---------------4--------5---------|
Db|----0-------------0------------------0---------------0--------0-----------|
Ab|--------------------------------------------------------------------------|
Eb|--------------------------------------------------------------------------|

Verse: Pattern A x2


Pre-Chorus (Pattern B)

Eb|------------0---------0------------------1p0-------5-----------10---------|
Bb|--------2-----2---------2---3p2--------3-----3-------6-----------10-------|
Gb|------2---------2---------2----------2---------2-------7-----------10-----|
Db|----2-------------2----------------0---------------------7-----------12---|
Ab|--0-----------------------------------------------------------------------|
Eb|--------------------------------------------------------------------------|


Eb|-------------------------------------------------------------|
Bb|-------------------------------------------------------------|
Gb|-----------------2-2-2-2---------------3-3-3-3----------5----|
Db|--5-5-5-5--------2-2-2-2---------------3-3-3-3----------5----|
Ab|--5-5-5-5--------0-0-0-0---------------1-1-1-1----------3----|
Eb|--3-3-3-3----------------------------------------------------|

Chorus (Pattern C)

Eb|----------------------------------------------------|
Bb|----------------------------------------------------|
Gb|--7-7-------3-3-3-------------------5-5-------------|
Db|--7-7-------3-3-3-------3-3-3-------5-5-------------|
Ab|--5-5-------1-1-1-------3-3-3-------3-3-----7h8p7---|
Eb|------------------------1-1-1---------------------8-|

Eb|------------------------------------------------------|
Bb|------------------------------------------------------|
Gb|--7-7-------3-3-3-------------------5-5---------------|
Db|--7-7-------3-3-3-------3-3-3-------5-5---------------|
Ab|--5-5-------1-1-1-------3-3-3-------3-3-----7h8p7h8p7-|
Eb|------------------------1-1-1-------------------------|


Eb|----------------------------------------------------|
Bb|----------------------------------------------------|
Gb|--7-7-------3-3-3-------------------5-5-------------|
Db|--7-7-------3-3-3-------3-3-3-------5-5-------------|
Ab|--5-5-------1-1-1-------3-3-3-------3-3--------3-1-0|
Eb|------------------------1-1-1-----------------------|

Eb|-------------------------------------------------------------|
Bb|-------------------------------------------------------------|
Gb|-----------------2-2-2-2---------------3-3-3-3----------5----|
Db|--5-5-5-5--------2-2-2-2---------------3-3-3-3----------5----|
Ab|--5-5-5-5--------0-0-0-0---------------1-1-1-1----------3----|
Eb|--3-3-3-3----------------------------------------------------|

Pattern A x1 (Lead fill)


Verse 2: Pattern A x1

Pre-Chorus: Pattern B

Chorus: Pattern C


Bridge/Solo (Pattern D)


Eb|----------------------------------------------------------|
Bb|----------------------------------------------------------|
Gb|-6-7-------------------8----8-8-----------------8---------|
Db|-6-7------5----5-5-----8----8-8----5----5-5-----8--3-3----|
Ab|-4-5--\---5----5-5-----6----6-6----5----5-5-----6--3-3----|
Eb|------\---3----3-3-----------------3----3-3--------1-1----|


Eb|---------------------------------------------------|
Bb|---------------------------------------------------|
Gb|----------------8----8-8-----------------8---------|
Db|---5----5-5-----8----8-8----5----5-5-----8--3-3----|
Ab|---5----5-5-----6----6-6----5----5-5-----6--3-3----|
Eb|---3----3-3-----------------3----3-3--------1-1----|

Eb|-------------------------------------------|
Bb|-------------------------------------------|
Gb|--5-5-5-5----7-7-7-7----8-8-8-8------------|
Db|--5-5-5-5----7-7-7-7----8-8-8-8----3-3-3-3-|
Ab|--3-3-3-3----5-5-5-5----6-6-6-6----3-3-3-3-|
Eb|-----------------------------------1-1-1-1-|


Chorus : Pattern C first 3 lines only then repeat chorus (Pattern C) 2 frets up until fade.





Comments


Popular Whitecross tabs & chords
Behold Tabs
Enough Is Enough Tabs
Flashpoint Tabs
Shakedown Tabs
The Hammer And Nail Tabs
Who Will You Follow Tabs


Song lyrics



↑ Back to top | Tablatures and chords are parodies/interpretations of the original songs. You may use it for private study, scholarship, research or language learning purposes only
© 2014 AZChords.com Contact us | Privacy policy | DMCA | Add/correct tabs | Request tabs | Top 50 tabs