» » »

Whitecross, Flashpoint Tabs (ver.1)

Artists:  A B C D E F G H I J K L M N O P Q R S T U V W X Y Z # 

Flashpoint Tabs (ver.1)

Whitecross Tabs
 Rating:
4/5 (4 votes)
Flashpoint lessons Tabs too difficult? Try these video lessons and learn fast
1
                
Rex Carroll
Whitecross


||------------------------|-----------------------|
||-----------9-13-11-13-9-|----------9-13-11-13-9-|
||o-----------------------|-----------------------|
||-----10-13--------------|----10-13--------------|
||o-11--------------------|-11--------------------|
||------------------------|-----------------------|
||------------------------|-----------------------|


|-------------------------|-------------------------|
|----------11-14-13-14-11-|----------11-14-13-14-11-|
|-------------------------|-------------------------|
|----11-15----------------|----11-15----------------|
|-13----------------------|-13----------------------|
|-------------------------|-------------------------|
|-------------------------|-------------------------|


|----------------------|----------------------|
|----------------------|----------------------|
|---------8-12-10-12-8-|---------8-12-10-12-8-|
|----8-11--------------|----8-11--------------|
|-10-------------------|-10-------------------|
|----------------------|----------------------|
|----------------------|----------------------|


|-----------------------|----------------------||
|----------13-11-9----9-|----9----9----9----9--||
|------------------12---|-10------------------o||
|----10-13--------------|------13---11---10----||
|-11--------------------|---------------------o||
|-----------------------|----------------------||
|-----------------------|----------------------||


|-------------13-8------|------------------------|
|------------------11-9-|-------------15-13-11-9-|
|----------10-----------|----------10------------|
|-----------------------|-12----12---------------|
|----11-15--------------|----13------------------|
|-13--------------------|------------------------|
|-----------------------|------------------------|


|-------11---------10---|---------10-11----|
|----11----------9----9-|------11----------|
|-12-------12-10--------|-8-12-------------|
|-----------------------|------------------|
|-----------------------|------------------|
|-----------------------|------------------|
|-----------------------|------------------|


|-4-11-9-11-8-11-6-11-|-4-8-6-8-4-8-3-8-|
|---------------------|-----------------|
|---------------------|-----------------|
|---------------------|-----------------|
|---------------------|-----------------|
|---------------------|-----------------|
|---------------------|-----------------|


|-1-13-12-13-9-13-8-13-|-6-9-8-9-6-9-4-9-|
|----------------------|-----------------|
|----------------------|-----------------|
|----------------------|-----------------|
|----------------------|-----------------|
|----------------------|-----------------|
|----------------------|-----------------|


|-3-15-14-15-11-15-9-15-|-8-11-9-11-8-11-6-11-|
|-----------------------|---------------------|
|-----------------------|---------------------|
|-----------------------|---------------------|
|-----------------------|---------------------|
|-----------------------|---------------------|
|-----------------------|---------------------|


|-4----------8-----|-------------------8-|
|--------------9---|-----------------9---|
|---5-6-8-10-----8-|----8-------8-12-----|
|------------------|-10------10----------|
|------------------|------11-------------|
|------------------|---------------------|
|------------------|---------------------|


|-11-15-16-11-8-11----|----|
|------------------9--|----|
|---------------------|----|
|---------------------|----|
|---------------------|----|
|---------------------|----|
|---------------------|----|
            
Submit corrections

comments powered by Disqus
↑ Back to top | Whitecross Tabs for Flashpoint. Lyrics for acoustic guitar and electric guitar. 1 Tablatures and chords are parodies/interpretations of the original songs. You may use it for private study, scholarship, research or language learning purposes only