>
 >
Memories

Memories Guitar Tabs

Whind Of Change - Memories chords, tabs, tablatures, lyrics

Guitar lessons | Add/correct | Request | Top 50 tabs Artists:  A B C D E F G H I J K L M N O P Q R S T U V W X Y Z 0-9

Memories Guitar Tabs – Whind Of Change

CD, Sheet music, Poster

Do you like Memories? Share with your friends now
Tabs
Wind Of Change

Intro
E--------------|--------------|--------------|--------------|
B--------------|--------------|--------------|--------------|
G------9---9---|------9---9---|------9---9---|------9---9---|
D----9---9---9-|----9---9---9-|----9---9---9-|----9---9---9-|
A--7-----------|--6-----------|--------------|--------------|
E--------------|--------------|--9-----------|--7-----------|

E--------------|--------------|--------------------------|
B--------------|--------------|--------------------------|
G------9---9---|------9---9---|------9---9-------9---9---|
D----9---9---9-|----9---9---9-|----9---9-------9---9---9-|
A--------------|--6-----------|------------0-------------|
E--0-----------|--------------|--9-----------7-----------|

Verse
E----------------------|--------------|
B----------------------|--------------|
G------9---9-----------|------9---9---|
D----9---9---9---------|----9---9---9-|
A--7-------------------|--6-----------|
E----------------------|--------------|

1. I hear the wind blow threw the trees 
   It’s a shame I know, that
2. I hear the stories you told
   It’s a shame I know, that
3. I hear your voice in my head
   It’s a shame someday, that

E----------------------|--------------|
B----------------------|--------------|
G------9---9-----------|------9---9---|
D----9---9---9---------|----9---9---9-|
A----------------------|--------------|
E--9-------------------|--7-----------|

1. I feel the fire warm up my face
   Someday I’ll have to leave this place
2. I feel your emotions clog my mind
   I may never find
3. I feel the scar you left on my soul
   I might forget what you’ve told

Pre-Chorus
E--------------|--------------|--------------|--------------0-|
B----------0---|----------0---|----------0---|----------0-----|
G------9-----9-|------9-----9-|------9-----9-|------9-----9---|
D----9---9-----|----9---9-----|----9---9-----|----9---9-------|
A--7-----------|--6-----------|--------------|----------------|
E--------------|--------------|--9-----------|--7-------------|




Chorus
E------|------|------|------|
B------|------|------|------|
G----9-|----9-|----6-|----4-|
D----9-|----9-|----6-|----4-|
A--7-7-|--6-6-|--4-4-|--2-2-|
E------|------|------|------|

1. But I still have my memories 
2. Even though I’m gone, I know right from wrong
3. And, I can still long…the day

E------|------|------|------|
B------|------|------|------|
G----9-|----9-|----6-|----4-|
D----9-|----9-|--6-6-|--4-4-|
A--7-7-|--6-6-|----4-|----2-|
E------|------|------|------|

1. You’ll never take that away from me
2. And, I can still find the place
3. The fire can warm up my face…again…again 

Verse
E----------------------|--------------|
B----------------------|--------------|
G------9---9-----------|------9---9---|
D----9---9---9---------|----9---9---9-|
A--7-------------------|--6-----------|
E----------------------|--------------|

1. I hear my thoughts and all that you’ve said
2. It’s a shame I can’t find a place

E----------------------|--------------|
B----------------------|--------------|
G------9---9-----------|------9---9---|
D----9---9---9---------|----9---9---9-|
A----------------------|--------------|
E--9-------------------|--7-----------|

1. I feel the loss every time I’m gone
2. It’s been way…way…way…to long

Bridge
E--------------------|---------------------------|
B--------------------|---------------------------|
G--9-----14-\-13--11-|--9-----14-\-13--11-----9--|
D--9-----14-\-13--11-|--9-----14-\-13--11-----9--|
A--7-----12-\-11--9--|--7-----12-\-11--9------7--|
E--------------------|---------------------------|

I hear the wind blow the trees
I feel the burden left on my knees
It’s a shame its from me, begging please
I can’t feel the fire
It’s the only thing I lived for
It filled my only desire

Chorus
E------|------|------|------|
B------|------|------|------|
G----9-|----9-|----6-|----4-|
D----9-|----9-|----6-|----4-|
A--7-7-|--6-6-|--4-4-|--2-2-|
E------|------|------|------|

1. But I still have my memories 
2. Even though I’m gone, I know right from wrong
3. And, I can still long…the day

E------|------|------|------|
B------|------|------|------|
G----9-|----9-|----6-|----4-|
D----9-|----9-|--6-6-|--4-4-|
A--7-7-|--6-6-|----4-|----2-|
E------|------|------|------|

1. You’ll never take that away from me
2. And, I can still find the place
3. The fire can warm up my face…again…again…again





Comments


Popular Whind Of Change tabs & chords
Ambient Silence Tabs
Away Tabs
Elisabeth Tabs
I See You Tabs
Ill Be There Tabs
In Your Way Tabs
My Only Friend Tabs
Summers Breeze Tabs


Song lyrics



↑ Back to top | Tablatures and chords are parodies/interpretations of the original songs. You may use it for private study, scholarship, research or language learning purposes only
© 2014 AZChords.com Contact us | Privacy policy | DMCA | Add/correct tabs | Request tabs | Top 50 tabs