» » »

Whind Of Change, Elisabeth Tabs (ver.1)

Artists:  A B C D E F G H I J K L M N O P Q R S T U V W X Y Z # 

Elisabeth Tabs (ver.1)

Whind Of Change Tabs
Rating:
0/5 (0 votes)
Elisabeth lessons Tabs too difficult? Try these video lessons and learn fast
                Intro
E-------------------------|------------------------|
B-------------------------|------------------------|
G-------------------------|------------------------|
D------3-2-3—3-/-5--3-2-0-|------------------------|
A----3--------------------|----3-2-3--3-/-5--3-2-0-|
E--3----------------------|--1---------------------|

E-------------------------|--------------------------------|
B-------------------------|--------------------------------|
G-------------------------|--------------------------------|
D------3-2-3—3-/-5--3-2-0-|--------------------------------|
A----3--------------------|----3-2-3--3-/-5--3-2-0---0-/-0-|
E--3----------------------|--1-----------------------3-/-5-|

Verse
E-----------------------------|
B-----------------------------|
G-----------------------------|
D--0-h-2--2--0-|--0-h-2--2--0-|
A--3------3--3-|--3------3--3-|
E--3------3--3-|--3------3--3-|

1.	If you close your eyes
2.	If I don’t know why
3.	If I open my eyes
4.	If I see your sign

E-----------------------------|
B-----------------------------|
G-----------------------------|
D--0-h-2--2--0-|--0-h-2--2--0-|
A--3------3--3-|--3------3--3-|
E--1------1--1-|--1------1--1-|

1.	Do the stars still shine?
2.	Will you give me the time?
3.	Will you still be mine?
4.	Will I take it this time?

Chorus
E---------------|-------------|-------------|
B---------------|-------------|-------------|
G--0--0---------|-0--0--------|--0--0--0--0-|
D--9--7---------|-9--7--------|--5--7--5--7-|
A--7--5---------|-7--5--------|--3--5--3--5-|
E--5--3---------|-5--3--------|--1--3--1--3-|

Oh, Elisabeth
How I should’ve told you this
Oh, Elisabeth
How I could’ve changes all this

Verse
E-----------------------------|
B-----------------------------|
G-----------------------------|
D--0-h-2--2--0-|--0-h-2--2--0-|
A--3------3--3-|--3------3--3-|
E--3------3--3-|--3------3--3-|

1.	If you could read my mind
2.	If you hear my reason why

E-----------------------------|
B-----------------------------|
G-----------------------------|
D--0-h-2--2--0-|--0-h-2--2--0-|
A--3------3--3-|--3------3--3-|
E--1------1--1-|--1------1--1-|

1.	“I love you” is what you’d find
2.	You might stay this time


Bridge
E-------------------|-------|
B-------------------|-------|
G--0--0-------------|-0--0--|
D--5--7-------------|-5--7--|
A--3--5-------------|-3--5--|
E--1--3-------------|-1--3--|

And, if you hold my heart
I might know how to start

E-------------------|------|
B-------------------|------|
G--0--0-------------|-0--0-|
D--9--7-------------|-5--7-|
A--7--5-------------|-3--5-|
E--5--3-------------|-1--3-|

To tell you how I feel
To help me try to heal

Chorus
E---------------|-------------|-------------|
B---------------|-------------|-------------|
G--0--0---------|-0--0--------|--0--0--0--0-|
D--9--7---------|-9--7--------|--5--7--5--7-|
A--7--5---------|-7--5--------|--3--5--3--5-|
E--5--3---------|-5--3--------|--1--3--1--3-|

Oh, Elisabeth
How I should’ve told you this
Oh, Elisabeth
How I could’ve changes all this

Verse
E-----------------------------|
B-----------------------------|
G-----------------------------|
D--0-h-2--2--0-|--0-h-2--2--0-|
A--3------3--3-|--3------3--3-|
E--3------3--3-|--3------3--3-|

1.	I should’ve told you this
2.	I know I’m going to miss

E-----------------------------|
B-----------------------------|
G-----------------------------|
D--0-h-2--2--0-|--0-h-2--2--0-|
A--3------3--3-|--3------3--3-|
E--1------1--1-|--1------1--1-|

1.	When I had the chance
2.	When I get the chance
            
Submit corrections

comments powered by Disqus
↑ Back to top | Whind Of Change Tabs for Elisabeth. Lyrics for acoustic guitar and electric guitar. Tablatures and chords are parodies/interpretations of the original songs. You may use it for private study, scholarship, research or language learning purposes only