>
 >
Ambient Silence

Ambient Silence Guitar Tabs

Whind Of Change - Ambient Silence chords, tabs, tablatures, lyrics

Guitar lessons | Add/correct | Request | Top 50 tabs Artists:  A B C D E F G H I J K L M N O P Q R S T U V W X Y Z 0-9

Ambient Silence Guitar Tabs – Whind Of Change

CD, Sheet music, Poster

Do you like Ambient Silence? Share with your friends now
Tabs
Summited by Bryant Barrera

Intro
E--------|------------|--------------------------|-------------------|
B--------|------------|--------------------------|-------------------|
G--------|--------0---|----0-----2---1---4---4---|----6---9---9------|
D------2-|------4---4-|------0-----2---2---2---2-|--7---7---7---7--0-|
A----2---|----2-------|--2-----0-----------------|-------------------|
E--0-----|--0---------|--------------------------|-------------------|

E----------------|----------------|----|
B----------------|----------------|----|
G--------0-------|--------0-------|--1-|
D------2---3---0-|------4---4---0-|--2-|
A----3-------3---|----5-------5---|--2-|
E--3-------------|--5-------------|----|

Verse
E-------|----------|
B-------|----------|
G--1--1-|--2--1--4-|
D--2--4-|--2--2--2-|
A--2-2-|----------|
E-------|----------|

E----------|----------|-------|
B----------|----------|-------|
G--1--1--1-|--2--1--4-|--6--9-|
D--2--4--2-|--2--2--2-|--7--7-|
A--2--2--2-|----------|-------|
E----------|----------|-------|

Pre-chorus
E-------------|-------------|----|
B-------------|-------------|----|
G--------0--0-|--------0--0-|--1-|
D------2----2-|------4----4-|--2-|
A----3------3-|----5------5-|--2-|
E--3--------3-|--5--------5-|----|

Chorus
E----------|----------|
B----------|----------|
G--0--0--1-|--0--0--1-|
D--2--4--2-|--2--4--2-|
A-3--5--2-|-3--5--2-|
E-3--5--=-|--3--5----|

Verse
E-------|----------|
B-------|----------|
G--1--1-|--2--1--4-|
D--2--4-|--2--2--2-|
A--2-2-|----------|
E-------|----------|

Bridge
E--------------------------|----------------------------|
B--------------------------|----------------------------|
G--1-------1-------1-------|----------------------------|
D--2-------2-------2-------|--7--5--2--------------2--4-|
A--2-------2-------2-------|--5--5--3--0--2--3--5--3--5-|
E----2-s-5---2-s-5---2-s-5-|--7--3-----1--3--3--5--3--5-|

Solo
E-----------|-----------------------|----------------|
B-----------|-----------11----------|----------------|
G--13-12-13-|--13-12-13----13-12-13-|--13-12---------|
D-----------|-----------------------|---------15-13--|
A-----------|-----------------------|----------------|
E-----------|-----------------------|----------------|
E--------------------|--------|----------------|
B-----------------12-|--------|----------------|
G--13----17-18-17----|-13vvvv-|-13-s-8-6-------|
D-----15-------------|--------|----------9-8-6-|
A--------------------|--------|----------------|
E--------------------|--------|----------------|





Comments


Popular Whind Of Change tabs & chords
Away Tabs
Elisabeth Tabs
I See You Tabs
Ill Be There Tabs
In Your Way Tabs
Memories Tabs
My Only Friend Tabs
Summers Breeze Tabs


Song lyrics



↑ Back to top | Tablatures and chords are parodies/interpretations of the original songs. You may use it for private study, scholarship, research or language learning purposes only
© 2014 AZChords.com Contact us | Privacy policy | DMCA | Add/correct tabs | Request tabs | Top 50 tabs