» » »

Technology Tabs (ver.1)

Artists:  A B C D E F G H I J K L M N O P Q R S T U V W X Y Z # 

Technology Tabs (ver.1)

The Whigs
Rating:
5/5 (2 votes)

Tabs too difficult? Try these video lessons and learn fast.
                The Whigs
Give Em All A Big Fat Lip

Standard Tuning

Intro/Verse
E--6---8--8----3--3---5--5---6--6---6--6---1--1--1--1--1--|
B--6---8--8----3--3---7--7---8--8---9--8---1--1--3--1--1--|
G--7---8--8----3--3---7--7---8--8---8--8---2--2--2--2--2--|
D--8---10-10---5--5---7--7---8--8---8--8---3--3--3--3--3--|
A--8---10-10---5--5---5--5---6--6---6--6------------------|
E--6---8--8----3--3---------------------------------------| repeat however many time necessary...

Chorus
E--6-------6-------6-------6-------6-------6-------8--------8-------8---8--|
B--8-------6-------8-------6-------8-------6-------10-------11------10--10-|
G--8-(x8)--7-(x8)--8-(x8)--7-(x8)--8-(x8)--7-(x8)--10-(x8)--10-(x3)-10--10-|
D--8-------8-------8-------8-------8-------8-------10-------10------10--10-|
A--6-------8-------6-------8-------6-------8-------8--------8-------8---8--|
E----------6---------------6---------------6-------8--------8-------8---8--|

(During the chorus, sometimes the chords will be played 9 times instead of 8, but it 
each time the chorus is repeated. You can listen to see when this happens.)

Repeat Verse and Chorus.
The next part goes like this (keep in mind the rhythm):

E------------------------1-------3-------|
B--3--3-------3--5-------1-------1-------|
G--3--3-(x5)--3--3-(x5)--2-(x7)--2-(x6)--|
D--3--3-------5--5-------2-------2-------|
A--3--5-------3--3-------0-------0-------|
E--3--3-------3--3-----------------------| (x3)

E--6--------3--|
B--8--------3--|
G--8-(x16)--3--|
D--8--------5--|
A--6--------5--|
E-----------3--|

Repeat Verse, then repeat the chorus, and then play the verse again.
End on:
E--6--|
B--6--|
G--7--|
D--8--|
A--8--|
E--6--|

I hope this worked for you.... the rhythm can be tricky sometimes. Make sure you listen 
the song closely to get those down.
            
Tabs too difficult? Try these video lessons and learn fast.




comments powered by Disqus
↑ Back to top | Tablatures and chords are parodies/interpretations of the original songs. You may use it for private study, scholarship, research or language learning purposes only