» » »

I Got Ideas Tabs (ver.1)

Artists:  A B C D E F G H I J K L M N O P Q R S T U V W X Y Z # 

I Got Ideas Tabs (ver.1)

The Whigs
Rating:
5/5 (1 vote)

Tabs too difficult? Try these video lessons and learn fast.
                			     "I Got Ideas" - The Whigs
Great song, especially for beginners to work on their power chords.
On the Album Mission Control

Standard Tuning

Intro:
e|---------------------|---------------------|
B|---------------------|---------------------|
G|---7-7---7-7-7-------|---9-9-9---9-9-9-----|      x1
D|---7-7---7-7-7-------|---9-9-9---9-9-9-----|
A|---5-5---5-5-5-------|---7-7-7---7-7-7-----|
E|---------------------|---------------------|

Straight Into Verse:
e|----------------------|---------------------|
B|----------------------|---------------------|
G|---7-7-7---7-7-7------|---9-9-9---9-9-9-----|      x11
D|---7-7-7---7-7-7------|---9-9-9---9-9-9-----|
A|---5-5-5---5-5-5------|---7-7-7---7-7-7-----|
E|----------------------|---------------------|


Chorus:
e|-------------------------------------|---------------------------------------|
B|-------------------------------------|---------------------------------------|
G|-------------------------------------|---------------------------------------|
D|---5-5-5-5-5-5-5-5-5-5-5-5-5-5-5-5---|--4-4-4-4-4-4--------------------------|
A|---5-5-5-5-5-5-5-5-5-5-5-5-5-5-5-5---|--4-4-4-4-4-4-----9---7-7-7-7-7-7-7-7--|
E|---3-3-3-3-3-3-3-3-3-3-3-3-3-3-3-3---|--2-2-2-2-2-2-----7---5-5-5-5-5-5-5-5--|

e|-------------------------------------------|
B|-------------------------------------------|
G|-------------------------------------------|     x1
D|---5-5-5-5-5-5-5-5-5-5-5-5-5-5-5-5---------|
A|---5-5-5-5-5-5-5-5-5-5-5-5-5-5-5-5---------|
E|---3-3-3-3-3-3-3-3-3-3-3-3-3-3-3-3---------|


e|---------------------|---------------------|
B|---------------------|---------------------|
G|-7-7-7-7-7-7-7-7-----|-9-9-9-9-9-9-9-9-----|      x4
D|-7-7-7-7-7-7-7-7-----|-9-9-9-9-9-9-9-9-----|
A|-5-5-5-5-5-5-5-5-----|-7-7-7-7-7-7-7-7-----|
E|---------------------|---------------------|



Back to Verse but only 10 times instead of 11
Then Chorus once again 

And then:
e|----------------------|----------------------------|
B|----------------------|----------------------------|
G|----7-7---7-7-7-------|---9-9-9---9-x-9-x-9--------|     x4
D|----7-7---7-7-7-------|---9-9-9---9-x-9-x-9--------|
A|----5-5---5-5-5-------|---7-7-7---7-x-7-x-7--------|
E|----------------------|----------------------------|

Then Chorus and keep going with the last part  as much as you want and then:

e|-----------------------------|
B|-----------------------------|
G|-7-------------12-----7------|
D|-7-------------12-----7------|
A|-5-------------10-----5------|
E|-----------------------------|
      let ring......

If you listen to it you can figure it out. Good Luck!

************************************

| /   slide up
| \   slide down
| h   hammer-on
| p   pull-off
| ~   vibrato
| +   harmonic
| x   Mute note
| b   Bend
| pb  Pre-bend
| br  Bend release
| pbr Pre-bend release
| brb Bend release bend

************************************
            
Tabs too difficult? Try these video lessons and learn fast.




comments powered by Disqus
↑ Back to top | Tablatures and chords are parodies/interpretations of the original songs. You may use it for private study, scholarship, research or language learning purposes only