» » »

Dont Talk Anymore Tabs (ver.1)

Artists:  A B C D E F G H I J K L M N O P Q R S T U V W X Y Z # 

Dont Talk Anymore Tabs (ver.1)

The Whigs
Rating:
0/5 (0 votes)

Tabs too difficult? Try these video lessons and learn fast.
                			     Don't Talk Anymore- The Whigs
On the album Give 'Em All A Big Fat Lip

Tuning: Standard (EADGBe)

Main Riff=

e|------------------------------------|
B|------------------------------------|
G|------------------------------------|
D|--7-7-7-7-7-9-8-7--7-7-7-7-7-7-7-7--|
A|--7-7-7-7-7-7-6-5--5-5-5-5-5-5-5-5--|
E|------------------------------------|

Play this over and over again

Chorus Riff=

e|-9--9--9--9--9--9--9--9--|
B|-10-10-10-10-10-10-10-10-|
G|-9--9--9--9--9--9--9--9--|
D|-------------------------|
A|-------------------------|
E|-------------------------|

Play this over and over again throughout the whole chorus. Up and down steady strokes.

The very end of the song ends with the main riff like this:

e|-----------------|
B|-----------------|
G|-----------------|
D|-7-7-7-7-7-9-8-7-|
A|-7-7-7-7-7-7-6-5-|
E|-----------------|

Listen to this song to get the timing. It's really self explanatory. This is a great 

| /  slide up
| \  slide down
| h  hammer-on
| p  pull-off
| ~  vibrato
| +  harmonic
| x  Mute note
            
Tabs too difficult? Try these video lessons and learn fast.




comments powered by Disqus
↑ Back to top | Tablatures and chords are parodies/interpretations of the original songs. You may use it for private study, scholarship, research or language learning purposes only