» » »

Wheatus, Truffles Tabs (ver.1)

Artists:  A B C D E F G H I J K L M N O P Q R S T U V W X Y Z # 

Truffles Tabs (ver.1)

Wheatus Tabs
 Rating:
3.7/5 (6 votes)
Truffles lessons Tabs too difficult? Try these video lessons and learn fast
1
                
This is the correct way (as far as I can tell) to play 
Truffles by Wheatus ... The previous tabs were basically 
correct but had a few errors.

There are no chords in the intro. It starts off with some 
percussion, and the bass joins in with the singing, playing:

G |-------------------------------------------------|
D |-------------------------------------------------|
A |---------5-5-5-5---------5-5-5-5-----------------|
E |-5-5-5-5---------5-5-5-5---------5-5-5-5-5-5-5-5-|

Bass only, not power chords.

Bridge 1:

e |-2---0---0---0---2---|
B |-2---2---0---2---2---|
G |-3---2---1---2---3---|
D |-4---2---2---2---4---|
A |-4---0---2---0---4---|
E |-2-------0-------2---|

It's F# A E A F#, not F# A D twice . . . that would be the 
wrong chords and too many strums. Also, you don't play the 
bottom string in an A chord (although you can.)

Verse:

e |---0---0---2---2---0---0---2---2---0---0---0-----|
B |---2---2---3---3---2---2---3---3---2---2---2-----|
G |---2---2---2---2---2---2---2---2---2---2---2-----|
D |---2---2---0---0---2---2---0---0---2---2---2-----|
A |---0---0-----------0---0-----------0---0---0-----|
E |-------------------------------------------------|

Bridge 2:

e |-2---0---0---0---2---0---0---0---|
B |-2---2---0---2---2---2---0---2---|
G |-3---2---1---2---3---2---1---2---|
D |-4---2---2---2---4---2---2---2---|
A |-4---0---2---0---4---0---2---0---|
E |-2-------0-------2-------0-------|

Chorus (use distortion):

e |-----------------------------------------------------------------|
B |---------3-3-3-3---------3-3-3-3---------3-3-3-3---------3-3-3-3-|
G |-2-2-2-2-2-2-2-2-2-2-2-2-2-2-2-2-2-2-2-2-2-2-2-2-2-2-2-2-2-2-2-2-|
D |-2-2-2-2-0-0-0-0-2-2-2-2-0-0-0-0-2-2-2-2-0-0-0-0-2-2-2-2-0-0-0-0-|
A |-0-0-0-0---------0-0-0-0---------0-0-0-0---------0-0-0-0---------|
E |-----------------------------------------------------------------|

It's in power chords, not open chords.

Fill between chorus and verse 3:

e |---------------------------------|
B |---------------------------------|
G |-2---2---2---2---2---2---2---2---|
D |-2-2-2-2-2-2-2-2-2-2-2-2-2-2-2-2-|
A |-0-2-0-2-0-2-0-2-0-2-0-2-0-2-0-2-|
E |---0---0---0---0---0---0---0---0-|

This is also in power chords.

Bridge 3:

e |-2---0---0---0---2---0---|
B |-2---2---0---2---2---2---|
G |-3---2---1---2---3---2---|
D |-4---2---2---2---4---2---|
A |-4---0---2---0---4---0---|
E |-2-------0-------2-------|

Bridge 4:

e |-2---0---0---0---2---0---0---0---2---0---0---0---|
B |-2---2---0---2---2---2---0---2---2---2---0---2---|
G |-3---2---1---2---3---2---1---2---3---2---1---2---|
D |-4---2---2---2---4---2---2---2---4---2---2---2---|
A |-4---0---2---0---4---0---2---0---4---0---2---0---|
E |-2-------0-------2-------0-------2-------0-------|

2nd chorus:

e |-----------------------------------------------------------------|
B |---------3-3-3-3---------3-3-3-3---------3-3-3-3---------3-3-3-3-|
G |-2-2-2-2-2-2-2-2-2-2-2-2-2-2-2-2-2-2-2-2-2-2-2-2-2-2-2-2-2-2-2-2-|
D |-2-2-2-2-0-0-0-0-2-2-2-2-0-0-0-0-2-2-2-2-0-0-0-0-2-2-2-2-0-0-0-0-|
A |-0-0-0-0---------0-0-0-0---------0-0-0-0---------0-0-0-0---------|
E |-----------------------------------------------------------------|

e |---------------------------------|
B |---------3-3-3-3-----------------|
G |-2-2-2-2-2-2-2-2-2-2-2-2---------|
D |-2-2-2-2-0-0-0-0-2-2-2-2-4-4-4-4-|
A |-0-0-0-0---------0-0-0-0-4-4-4-4-|
E |-------------------------2-2-2-2-|

Fill after second chorus:

e |------------------------------------------------|
B |------------------------------------------------|
G |-7--7-7---7-7-7-7-------------------------------|
D |-7--7-7---7-7-7-7-4---4---4-4-4-4-4---7---7-7-7-|
A |-5--5-5---5-5-5-5-4---4---4-4-4-4-4---7---7-7-7-|
E |------------------2---2---2-2-2-2-2---5---5-5-5-| x3

e |-----------------|
B |-----------------|
G |---------7-7-7-7-|
D |-9-9-9-9-7-7-7-7-|
A |-9-9-9-9-5-5-5-5-|
E |-7-7-7-7---------|

Back to the percussion, then the bass verse:

G |-------------------------------------------------|
D |-------------------------------------------------|
A |---------5-5-5-5---------5-5-5-5-----------------|
E |-5-5-5-5---------5-5-5-5---------5-5-5-5-5-5-5-5-|

Bridge 5 (use distortion this time):

e |-------------|
B |-------------|
G |-----2-------|
D |-4---2---2---|
A |-4---0---2---|
E |-2-------0---|

Comments, questions, queries, praise, abuse, insults, corrections 
or any other useless cr*p you want to send me about this song, it's 

Thank you and goodnight
            
Submit corrections

comments powered by Disqus
↑ Back to top | Wheatus Tabs for Truffles. Lyrics for acoustic guitar and electric guitar. 1 Tablatures and chords are parodies/interpretations of the original songs. You may use it for private study, scholarship, research or language learning purposes only