» » »

Wheatus, Teenage Dirtbag Tabs (ver.9)

Artists:  A B C D E F G H I J K L M N O P Q R S T U V W X Y Z # 

Teenage Dirtbag Tabs (ver.9)

Wheatus Tabs
 Rating:
4/5 (4 votes)
Teenage Dirtbag lessons Tabs too difficult? Try these video lessons and learn fast
1
                -----------------------------------------------------------------------------
-----------------------------------------------------------------------------

Capo Fret 2
Chords used:
E  B  A

Verse One:
e|----------------------------------------|
B|--------0--4-----------0--2-------------|
G|-----1-----4--------1-----2-------------|
D|----------------------------------------|
A|-----------2--------------0-------------|
E|---0-------------0----------------------|
  Her name is noel i had a dream about her

e|-------------------------------------------------------|
B|----------0-----4----------------------0---2-----------|
G|------1---------4-----------------1--------2-----------|
D|-------------------------------------------------------|
A|----------------2--------------------------0-----------|
E|---0---------------------------0-----------------------|
    She rings my bell i've got Gym class in half an hour

e|----------------------------------------|
B|--------0--4-----------0--2-------------|
G|-----1-----4--------1-----2-------------|
D|----------------------------------------|
A|-----------2--------------0-------------|
E|---0-------------0----------------------|
Oh How she rocks in kits and tube socks

e|---------------------------------|
B|--------0-------2-----------0--4-|
G|-----1----------2--------1-----4-|
D|---------------------------------|
A|----------------0--------------2-|
E|---0---------------------0-------|
But she doesn't know who i am

e|-----------------------------------|
B|--------0-------2-----------0--4-4-|
G|-----1----------2--------1-----4-4-|
D|-----------------------------------|
A|----------------0--------------2-2-|
E|---0---------------------0---------|
and she doesn't give a damn about me

Chorus:
     E          B        E        A
Cos I'm just a teenage dirtbag baby
     E          B          E      A
yeah i'm just a teenage dirtbag baby
E          B         E       A
listen to iron maiden maybe with me
E                 B
ooo ooo ooo oooooo

Verse Two:

e|---------------------------------------------|
B|--------0-------4-------------0---2----------|
G|-----1----------4--------1--------2----------|
D|---------------------------------------------|
A|----------------2-----------------0----------|
E|---0------------------0----------------------|
 Her boyfriends a dick he brings a gun to school

e|-----------------------------------------------|
B|----------0-----4----------------0---2---------|
G|------1---------4------------1-------2---------|
D|-----------------------------------------------|
A|----------------2--------------------0---------|
E|---0--------------------0----------------------|
  and he'd simply kick my ass if he knew the truth

e|---------------------------------------|
B|--------0-----4----------------0----2--|
G|-----1--------4------------1--------2--|
D|---------------------------------------|
A|--------------2---------------------0--|
E|---0--------------------0--------------|
he lives on my block and he drives on iroc

e|---------------------------------|
B|--------0-------2-----------0--4-|
G|-----1----------2--------1-----4-|
D|---------------------------------|
A|----------------0--------------2-|
E|---0---------------------0-------|
But he doesn't know who i am

e|-----------------------------------|
B|--------0-------2-----------0--4-4-|
G|-----1----------2--------1-----4-4-|
D|-----------------------------------|
A|----------------0--------------2-2-|
E|---0---------------------0---------|
and he doesn't give a damn about me


Chorus


Bridge:

e|-0-0---2-----0-0---0-------0-0---2--------0--0---------0----------------|
B|-0-0---4-----0-0---2-------0-0---4--------0--0---------4----------------|
G|-1-1---4-----1-1---2-------1-1---4--------1--1---------4----------------|
D|-2-2---4-----2-2---2-------2-2---4--------2--2---------4----------------|
A|-2-2---2-----2-2---0-------2-2---2--------2--2---------0----------------|
E|-0-0---2-----0-0---0-------0-0---2--------0--0---------0----------------|
           I am       Dirtbag        Oh she doesnt know what she's missing

e|-0-0---2-----0-0---0-------0-0---2--------0--0---------0----------------|
B|-0-0---4-----0-0---2-------0-0---4--------0--0---------4----------------|
G|-1-1---4-----1-1---2-------1-1---4--------1--1---------4----------------|
D|-2-2---4-----2-2---2-------2-2---4--------2--2---------4----------------|
A|-2-2---2-----2-2---0-------2-2---2--------2--2---------0----------------|
E|-0-0---2-----0-0---0-------0-0---2--------0--0---------0----------------|
           I am       Dirtbag        No she doesnt know what she's missing

Verse three:
    E            B
Man I feel that mood
     E               A
it's prom night and I am lonely
E         B
Low and Behold
E              A
She's walking over to me
E             B
this must be fake
E                A
my lips start to shake
E            A       E      B
how does she know who I am?
E                 A      E         B
and why does she give a damn about me?


Chorus 2: (using mock girls voice)
             E              B       E     A
I've got to tickets to iron maiden baby
C            B        E           A
come with me friday don't say maybe
E           B        E             A
I'm just a teenage dirtbag baby like you
E                   B
ooo ooo ooo ooooooooo


Bridge
            
Submit corrections

comments powered by Disqus
↑ Back to top | Wheatus Tabs for Teenage Dirtbag. Lyrics for acoustic guitar and electric guitar. 1 Tablatures and chords are parodies/interpretations of the original songs. You may use it for private study, scholarship, research or language learning purposes only