» » »

Wheatus, Teenage Dirtbag Tabs (ver.5)

Artists:  A B C D E F G H I J K L M N O P Q R S T U V W X Y Z # 

Teenage Dirtbag Tabs (ver.5)

Wheatus Tabs
 Rating:
4/5 (11 votes)
Teenage Dirtbag lessons Tabs too difficult? Try these video lessons and learn fast
1
                NOTE--------------------------------#
of the#
research.#
#-- File created with Instab - 


Standard tuning, pretty simple but a great tune.  For the 
verses, I'd use pick and fingers, but use what you like.
Be sure to let the high E string ring out as the lower bass 
notes are plam muted. I think the whole songs on an 
electric-acoustic, because the verse definately is, 
and he just kicks in the distortion for the chorus, etc.

-|----------------|-0------0------0------0---------|--------------------------
-|----------------|--------------------------------|--------------------------
-|----------------|*------------------------------*|--------------------------
-|----------------|*------------------------------*|--------------------------
-|----------------|----------2-2-----------0-0-----|--------------------------
-|----------------|---0-0-----------0-0------------|--------------------------
     DRUM INTRO       P.M.   P.M.   P.M.   P.M.         REPEAT 5 TIMES        

-|--0------0------0------0------0------0------0------0------|-----------------
-|----------------------------------------------------------|-----------------
-|----------------------------------------------------------|-----------------
-|----------------------------------------------------------|-----------------
-|-----------0-0----2-2----2-2----4-4----0-0----2-2----2-2--|-----------------
-|----4-4---------------------------------------------------|-----------------
      P.M.   P.M.   P.M.   P.M.   P.M.   P.M.   P.M.   P.M.                   

------------------------|-----------------------------------------------------
------------------------|-----------------------------------------------------
------------------------|-------2-2---4-4--------------------2-2---4-4--------
------------------------|-2-2---2-2---4-4-----6----4---2-2---2-2---4-4-----6--
------------------------|-2-2---0-0---2-2---4----2-----2-2---0-0---2-2---4----
------------------------|-0-0--------------------------0-0--------------------
 CHORUS (IN DISTORTION):                                                      

--------------------------------------------------------------------------|---
--------------------------------------------------------------------------|---
-------------2-2---4-4--------------------2-2---4-4-----------------------|---
---4---2-2---2-2---4-4-----6----4---2-2---2-2---4-4-----6----4----2----4--|---
-2-----2-2---0-0---2-2---4----2-----2-2---0-0---2-2---4----2----0----2----|---
-------0-0--------------------------0-0-----------------------------------|---
                                                                              

------------------------------------------------------|-----------------------
------------------------------------------------------|-----------------------
------------------------------------------------------|-----------------------
------------------------------------------------------|--6----4----2----4-----
------------------------------------------------------|4----2----0----2-------
------------------------------------------------------|-----------------------
 REPEAT VERSE, PRE-CHORUS, THEN CHORUS, BUT LAST TIME: 
P.M._______________|   

-------|----------0-----------0-----------0------------------------|----------
-------|----------0-----------0-----------0------------------------|----------
-------|*---------2-----------2-----------2-----------------------*|----------
-------|*-2-2-----2---2-2-----2---2-2-----2-----6----4----2----4--*|----------
-------|--2-2--2--0---2-2--2--0---2-2--2--0---4----2----0----2-----|----------
-------|--0-0---------0-0---------0-0------------------------------|----------
 BRIDGE:                                                            
RPT. 2Xs  

------------------------------------------------------------------------------
------------------------------------------------------------------------------
------------------------------------------------------------------------------
------------------------------------------------------------------------------
------------------------------------------------------------------------------
------------------------------------------------------------------------------
                BREAKDOWN: REPEAT VERSE AND PRE-CHORUS                        

-|--------------------------------------|-------------------------------------
-|--------------------------------------|-------------------------------------
-|*------------------------------------*|-------------------------------------
-|*---------2-2-2-2--4-4-4-4----6----4-*|-------------------------------------
-|-2-2-2-2--0-0-0-0--2-2-2-2--4----2----|-------------------------------------
-|-0-0-0-0------------------------------|-------------------------------------
   P.M.________________________________| REPEAT 3 X's, SLOWLY BUILDING, 
TILL  

------------|------------------------------------------------|----------------
------------|------------------------------------------------|----------------
------------|------------------------------------------------|----------------
------------|----------2-2-2-2--4-4-4-4----6----4----2----4--|----------------
------------|-2-2-2-2--0-0-0-0--2-2-2-2--4----2----0----2----|----------------
------------|-0-0-0-0----------------------------------------|----------------
 LAST TIME:   P.M._____________________|                                      

------------------------------------------------------------------------------
------------------------------------------------------------------------------
------------------------------------------------------------------------------
------------------------------------------------------------------------------
------------------------------------------------------------------------------
------------------------------------------------------------------------------
                  REPEAT BRIDGE 2 X's                                         

--------|---------------------------------------------------------------------
--------|---------------------------------------------------------------------
--------|--------------4-4-----------------------2-2-2-2----------------4-4---
--------|-2-2--x-x---x-4-4--x-x-----2-2--x-x---x-2-2-2-2---2-2--x-x---x-4-4---
--------|-2-2--x-x---x-2-2--x-x---x-2-2--x-x---x-0-0-x-x---2-2--x-x---x-2-2---
--------|-0-0--x-x----------x-x---x-0-0--x-x---------4-4---0-0--x-x-----------
 ENDING:                                                                      

-----------------------------------0------------------------------------------
------------------------------0----0------------------------------------------
------------------------------2----1------------------------------------------
-x-x-----2-2--x--------------------2------------------------------------------
-x-x---x-2-2--x--------------------2------------------------------------------
-x-x---x-0-0--x--5v-4-2h4-2--------0------------------------------------------
                                                                              
            
Submit corrections

comments powered by Disqus
↑ Back to top | Wheatus Tabs for Teenage Dirtbag. Lyrics for acoustic guitar and electric guitar. 1 Tablatures and chords are parodies/interpretations of the original songs. You may use it for private study, scholarship, research or language learning purposes only