» » »

Sunshine Tabs (ver.1)

Artists:  A B C D E F G H I J K L M N O P Q R S T U V W X Y Z # 

Sunshine Tabs (ver.1)

Wheatus
Rating:
4/5 (1 vote)

Hard to play? Try these video lessons and learn fast.
                Wheatus - Sunshine
==================


This is the 1st time I make tablature. If there are mistakes,
enjoy!


Intro:
E--------------------------
B--------------------------
G--------------------------
D-----77------77-----------
A-----77------77-----------
E-----55------55-----------

Verse: (4x)
E--------------------------
B--------------------------
G--------------77----------
D----77---22---77---77-----
A----77---22---55---77-----
E----55---00--------55-----



Pre Chorus:
E----------------------------------------------
B----------------------------------------------
G-----------------------------77---99---99-----
D----44---77---44---77---44---77---99---99-----
A----44---77---44---77---44---55---77---77-----
E----22---55---22---55---22--------------------


Chorus:
E----------------------------------------------
B----------------------------------------------
G-------------66---44---6-6---66---77---77-----
D---77---77---66---44---4-4---66---77---77-----
A---77---77---44---22---------44---55---55-----
E---55---55------------------------------------


E----------------------------------------------------------------
B----------------------------------------------------------------
G-------------66---44---6-6---66---77----------------------------
D---77---77---66---44---4-4---66---77-------77--77----77----77---
A---77---77---44---22---------44---55-------77--77----77----77---
E---55---55---------------------------------55--55----55----55---


Verse: (4x)
E--------------------------
B--------------------------
G--------------77----------
D----77---22---77---77-----
A----77---22---55---77-----
E----55---00--------55-----


Pre Chorus:
E--------------------------------------------------------------
B--------------------------------------------------------------
G-----------------------------77---99---99---------------------
D----44---77---44---77---44---77---99---99---------------------
A----44---77---44---77---44---55---77---77-----7-9-12-11-------
E----22---55---22---55---22------------------------------12-9--


Chorus:
E----------------------------------------------
B----------------------------------------------
G-------------66---44---6-6---66---77---77-----
D---77---77---66---44---4-4---66---77---77-----
A---77---77---44---22---------44---55---55-----
E---55---55------------------------------------


E----------------------------------------------------------------
B----------------------------------------------------------------
G-------------66---44---6-6---66---77----------------------------
D---77---77---66---44---4-4---66---77-------77--77----77----77---
A---77---77---44---22---------44---55-------77--77----77----77---
E---55---55---------------------------------55--55----55----55---.....


E-----------------------------
B-----------------------------
G--------7~6~----7~6~---------
D----7~------7~---------------
A------7~------7~-------------
E-----------------------------


Verse: (4x)
E--------------------------
B--------------------------
G--------------77----------
D----77---22---77---77-----
A----77---22---55---77-----
E----55---00--------55-----



Pre Chorus:
E--------------------------------------------------------------
B--------------------------------------------------------------
G-----------------------------77---99---99---------------------
D----44---77---44---77---44---77---99---99---------------------
A----44---77---44---77---44---55---77---77-----7-9-12-11-------
E----22---55---22---55---22------------------------------12-9--


Chorus (2x):
E----------------------------------------------
B----------------------------------------------
G-------------66---44---6-6---66---77---77-----
D---77---77---66---44---4-4---66---77---77-----
A---77---77---44---22---------44---55---55-----
E---55---55------------------------------------


E----------------------------------------------
B----------------------------------------------
G-------------66---44---6-6---66---77---77-----
D---77---77---66---44---4-4---66---77---77-----
A---77---77---44---22---------44---55---55-----
E---55---55------------------------------------


End: E (022100)

(I cant catch the melody..)
            
Hard to play? Try these video lessons and learn fast. | Correct




comments powered by Disqus
↑ Back to top | Tablatures and chords are parodies/interpretations of the original songs. You may use it for private study, scholarship, research or language learning purposes only