» » »

Punk Ass B***H Bass tabs (ver.1)

Artists:  A B C D E F G H I J K L M N O P Q R S T U V W X Y Z # 

Punk Ass B***H Bass tabs (ver.1)

Wheatus
Rating:
0/5 (0 votes)

Tabs too difficult? Try these video lessons and learn fast.
                This is one of Wheatus' best songs on the album. Its
punk at its best, and Wheatus at their best.

Standed tuning: E, A, D, G

A very easy song to play, and its awesome. And
beacause the lyrics are in sync with the tune,
its easy to sing and play.

Listen to song to figure out timing & speed.
Variate strumming to make it more interesting if 
you wish.


Riff 1
G|----------------------|
D|----------------------|
A|---7-7-7-7-7-7--5-5---|
E|----------------------|


Riff 2
G|-----------------|
D|-----------------|
A|---7-7-7-7-7-7---|
E|-----------------|


Riff 3 (this riff is played quite fast)
G|------------------------------------------------------------------------|
D|------------------------------------------------------------------------|
A|---7-7-7-7-7-7-7-7------------------------------------------------------|
E|--------------------7-7-7-7-7-7-7-7--9-9-9-9-9-9-9-9--5-5-5-5-5-5-5-5---|


Riff 4
G|----------------------------------------|
D|----------------------------------------|
A|---7-7-7-7------------------------------|
E|------------7-7-7-7--9-9-9-9--5-5-5-5---|


Riff 5 (let it ring)
G|-------|
D|-------|
A|---7---|
E|-------|
            
Tabs too difficult? Try these video lessons and learn fast.




comments powered by Disqus
↑ Back to top | Tablatures and chords are parodies/interpretations of the original songs. You may use it for private study, scholarship, research or language learning purposes only