» » »

Wheatus, Hump Em N Dump Em Bass tabs (ver.1)

Artists:  A B C D E F G H I J K L M N O P Q R S T U V W X Y Z # 

Hump Em N Dump Em Bass tabs (ver.1)

Wheatus Tabs
 Rating:
4/5 (4 votes)
Hump Em N Dump Em lessons Tabs too difficult? Try these video lessons and learn fast
                Band: Wheatus

"Bye bye now - have fun storming the castle"

INTRO:
G-|--------|----/-|----/-|----/-|
D-|--------|-o-/--|-o-/--|-o-/--|
A-|---3----|--/-o-|--/-o-|--/-o-|
E-|33---2-3|-/----|-/----|-/----|

VERSE 1:
G-|| --------|--------|--------|-------- ||
D-||.--------|--------|---3----|---3----.|| (x4)
A-||.---3----|---3----|33---2-3|33---2-3.||
E-|| 33---2-3|33---2-3|--------|-------- ||

PRE CHORUS:
G-|--------|--------|--------|--------|
D-|--------|--------|--------|---2----|
A-|-------0|3--2----|-------0|3----2-3|
E-|0--2-3--|-----3-2|0--2-3--|--------|

CHORUS PT1:
G-|| --------|-------- ||
D-||.---2----|---2----.|| (x4)
A-||.-----0-2|333--0-2.||
E-|| 333-----|-------- ||

CHORUS PT2:
G-|--------|-----------|
D-|0-000002|(2)-0------|
A-|--------|-----320---|
E-|--------|--------323|

REPEAT INTRO:

VERSE 2:
G-|--------|--------|--------|--------|--------|--------|
D-|--------|--------|---3----|---3----|--------|--------|
A-|---3----|---3----|33---2-3|33---2-3|---3----|---3----|
E-|33---2-3|33---2-3|--------|--------|33---2-3|33---2-3|

G-|--------|----0---|
D-|---3----|-023-323|
A-|33---2-3|3-------|
E-|--------|--------|

G-|| --------|--------|--------|-------- ||
D-||.--------|--------|---3----|---3----.|| (x2)
A-||.---3----|---3----|33---2-3|33---2-3.||
E-|| 33---2-3|33---2-3|--------|-------- ||

REPEAT PRE CHORUS & CHORUS PT1 & PT2:

INSTRUMENTAL SOLOS:
G-|--------|--------|--------|--------|--------|
D-|--------|--------|--------|---020--|--------|
A-|---3----|--------|---3----|------32|---3----|
E-|33---2-3|33------|33---2-3|33------|33---2-3|

G-|--------|-------------|-----|
D-|--------|-------------|-----|
A-|--------|---3---------|-----|
E-|33------|33---2-33-/15|\3---|


ACOUSTIC SECTION (steady rhythm - optional bass):
G-||  ---------9-9-------|---------9-9------ ||
D-||. -------------8-8-9-|10-10-10-----8-8-9.|| (x6)
A-||.\10-10-10-----------|------------------.||
E-||  -------------------|------------------ ||

ACOUSTIC SECTION (bass comes in):
G-|| --------|--------|--------|--------|--------|
D-||.--------|--------|--------|--------|--------|
A-||.--------|33333333|--------|33333335|--------|
E-|| 33333333|--------|33333333|--------|33333333|

G-|---------|--------|-------- ||
D-|---------|--------|--------.|| (x2)
A-|3333/7-3-|--------|33333330.||
E-|---------|33333333|-------- ||


ENDING PT1:
G-|| ---------|--------- ||
D-||.----2----|----2----.|| (x4)
A-||.------0-2|333---0-2.||
E-|| 333------|---------.||

ENDING PT2:
G-|--------|-----------|--------|
D-|0-000002|(2)-0------|--------| *fin*
A-|--------|-----320---|--------|
E-|--------|--------323|\0------|

N.B. Notes in Brackets are tied notes from previous bar.
            
Submit corrections

comments powered by Disqus
↑ Back to top | Wheatus Bass for Hump Em N Dump Em. Lyrics for acoustic guitar and electric guitar. Tablatures and chords are parodies/interpretations of the original songs. You may use it for private study, scholarship, research or language learning purposes only