» » »

Wheatus, Fairweather Friend Tabs (ver.1)

Artists:  A B C D E F G H I J K L M N O P Q R S T U V W X Y Z # 

Fairweather Friend Tabs (ver.1)

Wheatus Tabs
Rating:
0/5 (0 votes)
Fairweather Friend lessons Tabs too difficult? Try these video lessons and learn fast
                FAIRWEATHER FRIEND

Standard Tuning 

Verse
e------------------|-----------------|-----------------|-----------------|
B------------------|-----------------|-----------------|-----------------|
G------------------|-----------------|-----------------|-----------------|
D--7-7-7-7-7-7-7-7-|-7-7-7-7-7-7-7-7-|-----------------|-----------------|
A--5-5-5-5-5-5-5-5-|-5-5-5-5-5-5-5-5-|-5-5-5-5-5-5-5-5-|-5-5-5-5-5-5-5-9-|
E------------------|-----------------|-3-3-3-3-3-3-3-3-|-3-3-3-3-3-3-3-7-|

e------------------|-----------------|-----------------|-----------------|
B------------------|-----------------|-----------------|-----------------|
G------------------|-----------------|-----------------|-----------------|
D------------------|-----------------|-----------------|-----------------|
A--9-9-9-9-9-9-9-7-|-7-7-7-7-7-7-7-5-|-5-5-5-5-5-5-5-5-|-5-5-5-5-5-5-5-5-|
E--7-7-7-7-7-7-7-5-|-5-5-5-5-5-5-5-3-|-3-3-3-3-3-3-3-3-|-3-3-3-3-3-3-3-3-|


e------------------|-----------------|-----------------|-----------------|
B------------------|-----------------|-----------------|-----------------|
G------------------|-----------------|-----------------|-----------------|
D--7-7-7-7-7-7-7-7-|-7-7-7-7-7-7-7-7-|-----------------|-----------------|
A--5-5-5-5-5-5-5-5-|-5-5-5-5-5-5-5-5-|-5-5-5-5-5-5-5-5-|-5-5-5-5-5-5-5-9-|
E------------------|-----------------|-3-3-3-3-3-3-3-3-|-3-3-3-3-3-3-3-7-|


e------------------|-----------------|-----------------|-----------------|
B------------------|-----------------|-----------------|-----------------|
G------------------|-----------------|-----------------|-----------------|
D------------------|-----------------|-----------------|-----------------|
A--9-9-9-9-9-9-9-7-|-7-7-7-7-7-7-7-5-|-5-5-5-5-5-5-5-5-|-5-5-5-5-5-5-5-5-|
E--7-7-7-7-7-7-7-5-|-5-5-5-5-5-5-5-3-|-3-3-3-3-3-3-3-3-|-3-3-3-3-3-3-3-3-|


e------------------|-----------------|
B------------------|-----------------|
G------------------|-----------------|
D------------------|-----------------|
A--7-7-7-7-7-7-7-7-|-7-7-7-7-7-7-7-7-|
E--5-5-5-5-5-5-5-5-|-5-5-5-5-5-5-5-5-|

Hey fairweather friend, you know you're ripping me down again
And I don't car what you say, I can tell when we play that you don't believe in me
So this is how it'll end, like it was all just a waste of time
Now I got nowhere to go, I think I'll call up my bro I do believe he can save my hide
I've had enough of your alibis


Chorus
e--2---------------|-2---------------|-3---------------|-3---------------|
B--3---------------|-3---------------|-3---------------|-3---------------|
G--2---------------|-2---------------|-0---------------|-0---------------|
D--0---------------|-0---------------|-0---------------|-0---------------|
A------------------|-----------------|-x---------------|-x---------------|
E------------------|-----------------|-3---------------|-3---------------|

e--2---------------|-3---------------|-----------------|-----------------|
B--3---------------|-3---------------|-2---------------|-2---------------|
G--4---------------|-0---------------|-2---------------|-2---------------|
D--4---------------|-0---------------|-2---------------|-2---------------|
A--2---------------|-x---------------|-0---------------|-0---------------|
E------------------|-3---------------|-----------------|-----------------|

Hey drummer boy
Do you remember the beat that we played in the street in the faded summer time
Hey keep me hangin on
Now I got nowhere to go I think I'll call up my bro I do believe that he can save my hide
What you think fairweather friend

After Chorus Fill #1
e-----------------|-----------------|
B-----------------|-----------------|
G-----------------|-----------------|
D-7-7-7-7-7-7-7---|---------7-------|
A-5-5-5-5-5-5-5-7-|-9-5-7-9-5-------|
E---------------5-|-7-3-5-7---------|

ADDITIONAL LYRICS: (Verse 2)
Hey mystery man, ain't you the guy with the master plan
I'll watch you sit n that fence just like your f**kin' parents they never did like me anyway
And no I won't be your ass while you go look for some greener grass
No I can't be the fool who watch you push in your stool and stick around just in case you fail
Go find some other b**ch to nail

Repeat Chorus (Play After Chorus Fill #2 second time)

After Chorus Fill #2
e--2---------------|-2-------------3-|-----------------|-----------------|
B--3---------------|-3-------------3-|-----------------|-----------------|
G--2---------------|-2-------------4-|-----------------|-----------------|
D--0---------------|-0-------------5-|-----------------|-----------------|
A------------------|---------------5-|-----------------|-----------------|
E------------------|---------------3-|-----------------|-----------------|
            
Submit corrections

comments powered by Disqus
↑ Back to top | Wheatus Tabs for Fairweather Friend. Lyrics for acoustic guitar and electric guitar. Tablatures and chords are parodies/interpretations of the original songs. You may use it for private study, scholarship, research or language learning purposes only