» » »

Bmx Bandits Tabs (ver.1)

Artists:  A B C D E F G H I J K L M N O P Q R S T U V W X Y Z # 

Bmx Bandits Tabs (ver.1)

Wheatus
Rating:
5/5 (1 vote)

Hard to play? Try these video lessons and learn fast.
                This is my first tab, so dont judge too hard, but it sounds perfect to me

So here we go
Intro-
e|-----------------------------------------------|
B|-----------------------------------------------|
G|-444444444444----------------------------------|
D|-4444444444442222------------------------------|X 4
A|-2222222222222222------------------------------|
E|-------------0000------------------------------|
Verse- 
e|-----------------------------------------------|
B|-----------------------------------------------|
G|----4---4---4---4---4---4---4---4--------------|as many times as needed
D|-----------------------------------------------|
A|-2-2-2-2-0-0-0-0-------------------------------|
E|-----------------4-4-4-4-3-3-2-2---------------|

Bass enters here...
e|-----------------------------------------------|
B|-----------------------------------------------|
G|----4-4-4-----4-4-4-----4-4-4-----4---4--------|
D|-----------------------------------------------|
A|-2-2-2-2-2-0-0-0-0-0---------------------------|
E|---------------------4-4-4-4-4-3-3-2-2---------|

Chorus

e|-----------------------------------------------|
B|-----------------------------------------------|
G|-44444444------------------4444----------------|
D|-44444444-44466666-6664444444442222------------|as many as needed
A|-22222222-44466666-6664444422222222------------|
E|----------22244444-44422222----0000------------|

e|-----------------------------------------------|
B|-----------------------------------------------|
G|-444444444-------------------------------------|
D|-444444444-6-4---------4---6----2--------------|
A|-222222222-6-4---------4---6----2--------------|
E|-----------4-2---------2---4----0--------------|
             "i was only ...ten years old.."
Then back to intro.
Then chorus again.

then
e|-----------------------------------------------|
B|-----------------------------------------------|
G|-4-5-6-7-8-9-10-101112-13-14-15-16-------------|and that's 10, 11, and 12
D|-x-x-x-x-x-x-x--x-x-x--x--x--x--x--------------|theres just not much room
A|-2-3-4-5-6-7-8--8-9-10-11-12-13-14-------------|
E|---------------0-------------------------------|
 Bridge- "is there a love in your life?"
e|-----------------------------------------------|
B|-----------------------------------------------|
G|-4-44-4-44-2-22-222----------------------------|
D|-4-44-4-44-2-22-222-6-66-6-66-5-55-4-44--------|
A|-2-22-2-22-0-00-000-6-66-6-66-5-55-4-44--------|
E|--------------------4-44-4-44-3-33-2-22--------|


then another chorus

and end on a nice
e|-0----------------------------------------------|
B|-0----------------------------------------------|
G|-1----------------------------------------------|
D|-2----------------------------------------------|
A|-2----------------------------------------------|
E|-0----------------------------------------------|
E major

and there ya go!
            
Hard to play? Try these video lessons and learn fast. | Correct




comments powered by Disqus
↑ Back to top | Tablatures and chords are parodies/interpretations of the original songs. You may use it for private study, scholarship, research or language learning purposes only