» » »

Write For Your Life Tabs (ver.1)

Artists:  A B C D E F G H I J K L M N O P Q R S T U V W X Y Z # 

Write For Your Life Tabs (ver.1)

Whatever It Takes
Rating:
0/5 (0 votes)

Hard to play? Try these video lessons and learn fast.
                -------------------------------------------------------------------------------
			     Write For Your Life – Whatever It Takes
-------------------------------------------------------------------------------

Tuning: Standard

This song has is played on an acoustic guitar and an electric guitar, the acoustic
has a different strumming pattern.

~  vibrato
x  Mute note


Acoustic Intro (play this chord continually)
e|---| 
B|---|
G|---|
D|-8-|
A|-x-|
E|-6-|

Electric Guitar Intro
e|-------------------------| 
B|-------------------------|
G|-------------------------|
D|-6~---8~---10-6~---10-6~-|
A|-6~---8~---10-6~---10-6~-|
E|-4~---6~----8-4~----8-4~-|

Verse (acoustic has no muted parts and a different strumming pattern)
e|----------------------------------------------| 
B|----------------------------------------------|
G|----------------------------------------------|
D|-8------10-1010-6-66666666-10-1010-6-66666666-|
A|-8(x32)-10-1010-6-66666666-10-1010-6-66666666-|x2
E|-6-------8--8-8-4-44444444--8--8-8-4-44444444-|
Pm.*          * *   ********     * *   ********

Chorus
e|------------------------------------------------------------------| 
B|------------------------------------------------------------------|
G|------------------------------------------------------------------|
D|-10-----6-----10-----6-----10101010-12121212-10101010-8888-6------|
A|-10(x8)-6(x8)-10(x8)-6(x8)-10101010-12121212-10101010-8888-6(x12)-|
E|--8-----4------8-----4------8-8-8-8-10101010--8-8-8-8-6666-4------|

Bridge
e|-----------------------------------| 
B|-----------------------------------|
G|-----------------------------------|
D|-4444444444444444-6666666666666666-|
A|-4444444444444444-6666666666666666-|x2
E|-2222222222222222-4444444444444444-|

Ending
e|------------------------------------| 
B|------------------------------------|
G|------------------------------------|
D|-10101010-12121212-10101010-8888-6~-|
A|-10101010-12121212-10101010-8888-6~-|
E|--8-8-8-8-10101010--8-8-8-8-6666-4~-|


Acoustic		Electric

Intro			Nothing
Intro x2		Intro x2
Verse			Verse
Chorus 		Chorus
Verse 			Verse
Chorus 		Chorus
Bridge			Bridge
Intro			Nothing
Intro			Intro
Chorus 		Chorus
Ending			Ending



===============================================================================
            
Hard to play? Try these video lessons and learn fast. | Correct




comments powered by Disqus
↑ Back to top | Tablatures and chords are parodies/interpretations of the original songs. You may use it for private study, scholarship, research or language learning purposes only