» » »

Whatever It Takes, Sea Of Promise Bass tabs (ver.1)

Artists:  A B C D E F G H I J K L M N O P Q R S T U V W X Y Z # 

Sea Of Promise Bass tabs (ver.1)

Whatever It Takes Tabs
 Rating:
4/5 (4 votes)
Sea Of Promise lessons Tabs too difficult? Try these video lessons and learn fast
1
                - Whatever It Takes - Sea Of Promise
- Nice song and its not hard to play. Hope it helps.


________
Verse
G|------------------------------------|----|
D|------------------------------------|----|
A|---------44444444-------------------|-2x-|
E|-1111111----------44444444-44444444-|----|

Bridge I
G|-------------------------------------|----|
D|-------------------------------------|----|
A|-11111111-11111111-11111111-11111111-|-1x-|
E|-------------------------------------|----|

Verse
G|------------------------------------|----|
D|------------------------------------|----|
A|---------44444444-------------------|-4x-|
E|-1111111----------44444444-44444444-|----|

Bridge I
G|-------------------------------------|----|
D|-------------------------------------|----|
A|-11111111-11111111-11111111-11111111-|-1x-|
E|-------------------------------------|----|

Pré-chorus
G|------------------------------------------------------|----|
D|------------------------------------------------------|----|
A|---------4444-----11111111-11111111-11111111-11111111-|-1x-|
E|-1-1-1111----4444-------------------------------------|----|

Chorus [1x]
G|-------------------|----|-------------------------------------|----|
D|-------------------|----|-------------------------------------|----|
A|---------4-44------|-3x-|-11111111-11111111-11111111-11111111-|-1x-|
E|-1-1-111-----4-444-|----|-------------------------------------|----|

Repeat Verse [4x]
Repeat Bridge I [1x]
Repear Pre-chorus [1x]
Repeat Chorus [1x]

Stop
G|---|----|
D|---|----|
A|---|-1x-|
E|-1-|----|

No Bass [01:44 – 01:51]

Bridge II
G|-----1-3-5-3--------1-3-5-3---|----|
D|-------------3--------------3-|----|
A|-1-1------------1-1-----------|-1x-|
E|------------------------------|----|

G|-------------------------1-3-5-3--------1-3-5-3---|----|
D|---------------------------------3--------------3-|----|
A|----------4444-------1-1------------1-1-----------|-1x-|
E|-11111111------4444-------------------------------|----|

G|-------------------------1-3-5-3--------1-3-5-3---|----|
D|-33333333------------------------3--------------3-|----|
A|----------4444-------1-1------------1-1-----------|-2x-|
E|---------------4444-------------------------------|----|




G|----------------------1-3-5-3--------1-3-5-3---|----|
D|-33333335-6-66-1~-------------3--------------3-|----|
A|------------------1-1------------1-1-----------|-1x-|
E|-----------------------------------------------|----|

G|-------------------------1-3-5-3--------1-3-5-3---|----|
D|-33333333------------------------3--------------3-|----|
A|----------4444-------1-1------------1-1-----------|-1x-|
E|---------------4444-------------------------------|----|

G|----------6-66----------1-3-5-3--------1-3-5-3---|----|
D|-33333335------6-66-------------3--------------3-|----|
A|--------------------1-1------------1-1-----------|-1x-|
E|-------------------------------------------------|----|

Ending
G|-----1-3-5-3---|-----|
D|-------------3-|-----|
A|-1-1-----------|-16x-|
E|---------------|-----|

G|-------|----|
D|-------|----|
A|-1~~~~-|-1x-|
E|-------|----|
            
Submit corrections

comments powered by Disqus
↑ Back to top | Whatever It Takes Bass for Sea Of Promise. Lyrics for acoustic guitar and electric guitar. 1 Tablatures and chords are parodies/interpretations of the original songs. You may use it for private study, scholarship, research or language learning purposes only