» » »

Whatever It Takes, Erase The Days Bass tabs (ver.1)

Artists:  A B C D E F G H I J K L M N O P Q R S T U V W X Y Z # 

Erase The Days Bass tabs (ver.1)

Whatever It Takes Tabs
 Rating:
4/5 (4 votes)
Erase The Days lessons Tabs too difficult? Try these video lessons and learn fast
                - Whatever It Takes - Erase The Days
- This song is pretty easy to play. Just listen to the ending part to get that right. 

__________________
Before Verse I
G|-------|----|
D|-------|----|
A|-------|-1x-|
E|-0-2-0-|----|

Verse I 
G|-------------------------------------------------------|----|
D|------------------------------------------44444-666666-|----|
A|-11110-111110----------------11110-111110--------------|-2x-|
E|--------------22220-2222220----------------------------|----|

Bridge I
G|-------------------------------------------------------|----|
D|------------------------------------------44444-666666-|----|
A|-11110-111110----------------11110-111110--------------|-1x-|
E|--------------22220-2222220----------------------------|----|

Verse II 
G|-------------------------------------------------------|----|
D|------------------------------------------44444-666666-|----|
A|-11110-111110----------------11110-111110--------------|-2x-|
E|--------------22220-2222220----------------------------|----|

Chorus I
G|-------------------------------------|----|
D|-------------------------------------|----|
A|-11111111----------------------------|-1x-|
E|----------22222222-11111111-22224444-|----|

G|------------------------------|----|
D|------------------------------|----|
A|-11111111---------------------|-1x-|
E|----------22222222-11111111-2-|----|

Verse III 
G|-------------------------------------------------------|----|
D|------------------------------------------44444-666666-|----|
A|-11110-111110----------------11110-111110--------------|-2x-|
E|--------------22220-2222220----------------------------|----|

Chorus II
G|-------------------------------------|----|
D|-------------------------------------|----|
A|-11111111----------------------------|-1x-|
E|----------22222222-11111111-22224444-|----|

G|--------------------------------|----|
D|--------------------------------|----|
A|-11111111-----------------------|-1x-|
E|----------22222222-11111111-2~~-|----|

Bridge II
G|-------------------------------------------|----|
D|-------------------------------------------|----|
A|-11111-1-1---------------------------------|-2x-|
E|-----------22222-2-2-11111-1-1-22222-44444-|----|

Bridge III
G|--------------------------------------------------------------------|----|
D|--------------------------------------------------------------------|----|
A|-1111111111111111---------------------------------------------------|-2x-|
E|-----------------2222222222222222-1111111111111111-2222222244444444-|----|

Ending
G|----------------|----|
D|----------------|----|
A|----------------|-1x-|
E|-2~--2~--2~--2~-|----|

G|-----------------------------------------------|----|
D|---4~---4~---4~---4~---4~---4~---4~---4~-------|----|
A|-----------------------------------------------|-1x-|
E|-2~---2~---2~---2~---2~---2~---2~---2~---2~~~~-|----|
            
Submit corrections

comments powered by Disqus
↑ Back to top | Whatever It Takes Bass for Erase The Days. Lyrics for acoustic guitar and electric guitar. Tablatures and chords are parodies/interpretations of the original songs. You may use it for private study, scholarship, research or language learning purposes only