» » »

Wham, Young Guns Bass tabs (ver.1)

Artists:  A B C D E F G H I J K L M N O P Q R S T U V W X Y Z # 

Young Guns Bass tabs (ver.1)

Wham Tabs
 Rating:
4/5 (4 votes)
Young Guns lessons Tabs too difficult? Try these video lessons and learn fast
                Didn't see any tabs for this song on the net so i learned it by ear, if theres problems 
it...edit it yourself


Intro
  E E E E E E E T. E   Q  Q  Q  Q  Q Q  S  S  S  S  S  S
|-----------------------------------------------------------|
|-------------5-5--7------------5/7-5-----------------------|
|-5-5-7-7-8-8----------5--7--8------------------------------|
|---------------------------------------3--3--3--3--3--3----|

                              Chorus
  S S S S S S S S S S S S T    S S S S S S S S  S S S S  S S S S S
|----------------------------| |------7-5-----7-5----5---5------------|
|-7/9-7-----------5-5h7-5----| |--------------------------------------|
|-------------5/7---------7--| |--5-5-----5-5------3---3----5-5-5-5-5-|
|-------3-3-3----------------| |--------------------------------------|

That part where him and that lady are talking...
  S S S S S S S S S S S S S S S S S S S  S S S S S
|-----------------------------------------------------|
|-----------------------------------------------------|
|-------------5-5-7-------5h7-5-5-5-5-5--7-7-7-7-7----|
|-5-5-7-7-8-8-------5-7-8-----------------------------|

And outro
  S S S S S S S S S S  S S S S S S S S S
|--------------------------3-3-------3-3----|
|-----3-3-------3-3-------------------------|
|----------------------1-1-----1-1-1---1----|
|-1-1-----1-1-1-----1-----------------------|

In case you didn't notice, most of the parts repeat, and on the outro and chorus its 


No he didn't write this tab, but i based the tab off of what he played...hope he dosen't sue me
            
Submit corrections

comments powered by Disqus
↑ Back to top | Wham Bass for Young Guns. Lyrics for acoustic guitar and electric guitar. Tablatures and chords are parodies/interpretations of the original songs. You may use it for private study, scholarship, research or language learning purposes only