» » »

Wham Rap Bass tabs (ver.1)

Artists:  A B C D E F G H I J K L M N O P Q R S T U V W X Y Z # 

Wham Rap Bass tabs (ver.1)

Wham
Rating:
1/5 (1 vote)

Hard to play? Try these video lessons and learn fast.
                This is a tiny bit complex and is best played with a pick.

I know this song as Rapper's Delight by The Sugarhill Gang, but they're not on the 
and apparently its Wham Rap.

Intro

G------------------|
D------------------|  X2
A---5h7~-7h5-------|
E-0----------7-0---|

Main Riff

G-------------------------------------------------|
D---------------------------------------4-5-------|
A---------------0-2-4-5-7-------5-5-5-5-----5-----|
E-0-0-0--0-0-2-3----------5-5-5---------------5-3-|
            
Hard to play? Try these video lessons and learn fast. | Correct




comments powered by Disqus
↑ Back to top | Tablatures and chords are parodies/interpretations of the original songs. You may use it for private study, scholarship, research or language learning purposes only