» » »

Last Christmas Tabs (ver.3)

Artists:  A B C D E F G H I J K L M N O P Q R S T U V W X Y Z # 

Last Christmas Tabs (ver.3)

Wham
Rating:
0/5 (0 votes)

Hard to play? Try these video lessons and learn fast.
                Wham  - Last Christmas

This is a simple guitar version of the synthie riff played throughout the song.

   D                                   Bm
   1 + 2 + 3 + 4 + | 1 + 2 + 3 + 4 + | 1 + 2 + 3 + 4 + | 1 + 2 + 3 + 4 + |
e|-----------------|---2-------------|-----------------|---2-------------|
h|-5---5-5-3---3-3-|-5-3-5-3---3-3-3-|-5---5-5-3---3-3-|-5-3-5-3---3-3-3-|
g|-2---2-2-2---2-2-|-2---2-2---2-2-2-|-4---4-4-4---4-4-|-4---4-4---4-4-4-|
d|-0---------------|-0---------------|-----------------|-----------------|
a|-----------------|-----------------|-2---------------|-2---------------|
e|-----------------|-----------------|-----------------|-----------------|

   Em                                  A
   1 + 2 + 3 + 4 + | 1 + 2 + 3 + 4 + | 1 + 2 + 3 + 4 + | 1 + 2 + 3 + 4 + |
e|-2---2-2-0---0-0-|-2-3-2-0---0-0-0-|-----------------|-----------------|
h|-0---0-0-0---0-0-|-0-0-0-0---0-0-0-|-3---3-3-2---2-2-|-0-0-0-2---2-2-2-|
g|-----------------|-----------------|-2---2-2-2---2-2-|-2-2-2-2---2-2-2-|
d|-----------------|-----------------|-----------------|-----------------|
a|-----------------|-----------------|-0---------------|-0---------------|
e|-0---------------|-0---------------|-----------------|-----------------|
            
Hard to play? Try these video lessons and learn fast. | Correct




comments powered by Disqus
↑ Back to top | Tablatures and chords are parodies/interpretations of the original songs. You may use it for private study, scholarship, research or language learning purposes only