» » »

We Were Promised Jetpacks, Ships With Holes Will Sink Tabs (ver.1)

Artists:  A B C D E F G H I J K L M N O P Q R S T U V W X Y Z # 

Ships With Holes Will Sink Tabs (ver.1)

We Were Promised Jetpacks Tabs
 Rating:
4.3/5 (6 votes)
Ships With Holes Will Sink lessons Tabs too difficult? Try these video lessons and learn fast
                (0:00)
  G#m7            B9               D#m             E       E9  Emaj7
E|--------------------------------|--------------------------------|
B|--------------------------------|--------------------------------|
G|8~--------------8~--------------|------------------------6---8---|
D|9~--------------9~--------------|8~--------------6~--------------|
A|11~-----------------------------|9~--------------7~------7---7---|
E|0~--------------9~--------------|11~-------------7~------7---7---|


(0:21)
  G#m             F#               E
E|--------------------------------|--------------------------------|
B|4~--------------2~--------------|0~------------------------------|
G|4~--------------3~--------------|1~------------------------------|
D|6~--------------4~--------------|2~------------------------------|
A|6~--------------4~--------------|2~------------------------------|
E|--------------------------------|--------------------------------|


(0:32)
E|--------------------------------|--------------------------------|
B|4-4-4-4-4-4-4-442-2-2-2-2-2-2-22|0-0-0-0-0-0-0-0-0-0-0-0-0-0-0000|
G|4-4-4-4-4-4-4-443-2-2-2-2-2-2-22|1-1-1-1-1-1-1-1-1-1-1-1-1-1-1111|
D|6-6-6-6-6-6-6-664-4-4-4-4-4-4-44|2-2-2-2-2-2-2-2-2-2-2-2-2-2-2222|
A|6-6-6-6-6-6-6-664-4-4-4-4-4-4-44|2-2-2-2-2-2-2-2-2-2-2-2-2-2-2222|
E|--------------------------------|--------------------------------|


(0:43) - Same as (0:00)


(1:04) - Same as (0:21)


(1:15) - Same as (0:32)


(1:32) (Switches from 4/4 time to 6/4 time)(There are two guitar parts here)
Guitar 1
E|------------------------------------------------|
B|------------------------------------------------|
G|8-8---6-6---9-9---1111~-------------------------|
D|9-9---8-8---1111--1313~-------------------------|
A|-----------Thirteens----------------------------|
E|------and Elevens-^-----------------------------|

E|------------------------------------------------|
B|------------------------------------------------|
G|8-8---6-6---9-9---8-8~--------------------------|
D|9-9---8-8---1111--9-9~--------------------------|
A|------------------------------------------------|
E|------------------------------------------------|

E|------------------------------------------------|
B|------------------------------------------------|
G|8-8---6-6---9-9---1111~-------------------------|
D|9-9---8-8---1111--1313~-------------------------|
A|------------------------------------------------|
E|------------------------------------------------|

E|------------------------------------------------|
B|------------------------------------------------|
G|8-8---6-6---9-9---8-8~--------------------------|
D|9-9---8-8---1111--9-9~--------------------------|
A|------------------------------------------------|
E|------------------------------------------------|

Guitar 2
E|------------------------------------------------|
B|------------------------------------------------|
G|--8-----8/9----9/11-11~-------------------------|
D|9-----9-----11----1313~-------------------------|
A|------------------------------------------------|
E|------------------------------------------------|

E|------------------------------------------------|
B|------------------------------------------------|
G|--11----11\9--9---8-----------------------------|
D|13----13----11------9~--------------------------|
A|------------------------------------------------|
E|------------------------------------------------|

E|------------------------------------------------|
B|--------------------------------12------12------|
G|--8-----8/9----9/11-11~-------------11------11--|
D|9-----9-----11----1313~-----------13--13--13--13|
A|------------------------------------------------|
E|------------------------------------------------|

E|------------------------------------------------|
B|------------------------------------------------|
G|--11----11\9--9---8-----------------------------|
D|13----13----11------9~--------------------------|
A|------------------------------------------------|
E|------------------------------------------------|


(1:49) (Back to 4/4 time and one main guitar part)
E|--------------------------------|
B|7-7-7-7-7-7-7-7-7-7-7-7-7-7-7-77|
G|8-8-8-8-8-8-8-8-8-8-8-8-8-8-8-88|
D|9-9-9-9-9-9-9-9-9-9-9-9-9-9-9-99|
A|9-9-9-9-9-9-9-9-9-9-9-9-9-9-9-99|
E|--------------------------------|


(1:55)
E|--------------------------------|--------------------------------|
B|2-2-2-2-2-2-2-2-2-2-2-2-2-2-2-22|0-0-0-0-0-0-0-0-0-0-0-0-0-0-0000|
G|3-3-3-3-3-3-3-3-3-3-3-3-3-3-3-33|1-1-1-1-1-1-1-1-1-1-1-1-1-1-1111|
D|4-4-4-4-4-4-4-4-4-4-4-4-4-4-4-44|2-2-2-2-2-2-2-2-2-2-2-2-2-2-2222|
A|4-4-4-4-4-4-4-4-4-4-4-4-4-4-4-44|2-2-2-2-2-2-2-2-2-2-2-2-2-2-2222|
E|--------------------------------|--------------------------------|

E|--------------------------------|--------------------------------|
B|7-7-7-7-7-7-7-7-7-7-7-7-7-7-7-7-|7-7-7-7-7-7-7-7-7-7-7-7-77777777|
G|8-8-8-8-8-8-8-8-8-8-8-8-8-8-8-8-|8-8-8-8-8-8-8-8-8-8-8-8-88888888|
D|9-9-9-9-9-9-9-9-9-9-9-9-9-9-9-9-|9-9-9-9-9-9-9-9-9-9-9-9-99999999|
A|9-9-9-9-9-9-9-9-9-9-9-9-9-9-9-9-|9-9-9-9-9-9-9-9-9-9-9-9-99999999|
E|--------------------------------|--------------------------------|


(2:24) - Same as (0:21)
            
Submit corrections

comments powered by Disqus
↑ Back to top | We Were Promised Jetpacks Tabs for Ships With Holes Will Sink. Lyrics for acoustic guitar and electric guitar. Tablatures and chords are parodies/interpretations of the original songs. You may use it for private study, scholarship, research or language learning purposes only