» » »

Quiet Little Voices Bass tabs (ver.1)

Artists:  A B C D E F G H I J K L M N O P Q R S T U V W X Y Z # 

Quiet Little Voices Bass tabs (ver.1)

We Were Promised Jetpacks
Rating:
5/5 (1 vote)

Hard to play? Try these video lessons and learn fast.
                Intro
G|----------------|----------------|----------------|----------------|
D|----------------|----------------|--99--9---99--9-|--99--9-9-9-9-9-|
A|----------------|----------------|----------------|----------------|
E|--4~------------|--12~-----------|----------------|----------------|
                                    In the video, he plays 14 on A 
                                    But it's easier at 9 on D.

Verse
G|----------------|----------------|----------------|----------------|
D|----------------|----------------|----------------|----------------|
A|----------------|----------------|----------------|----------------|
E|4-444-4-4-444-44|0-0/12120-0/1212|7-777-7-7-7-777-|7-777-7-7-7-7-7-|

G|----11----------|----11----------|----11----------|----------------|
D|9-----9---------|9-----9---------|9-----9---------|9---------------|
A|--------11--9---|--------11--9---|--------11--9---|----11--9---11--|
E|----------------|----------------|----------------|----------------|
He plays this towards the end of the verses.
He plays it starting at 14 on A, but again, it's easier at 9 on D.
I spaced it out so it would be easier to read, so it is twice as long
as the rest of the tab.

Chorus
G|----------------|----------------|----------------|----------------|
D|----------------|----------------|----------------|----------------|
A|----------------|----------------|----------------|----------------|
E|4444444444444444|1212121212121212|7777777777777777|7777777777777777|
                   ^Twelves^

Bridge
G|----11----------|----11----------|----11----------|----------------|
D|9-----9---------|9-----9---------|9-----9---------|9---------------|
A|--------11--9---|--------11--9---|--------11--9---|----11--9---11--|
E|----------------|----------------|----------------|----------------|

G|----------------|----------------|
D|9999999999999999|999999999-------|
A|----------------|----------119-11|
E|----------------|----------------|

End the last chorus on:
G|----------------|
D|----------------|
A|----------------|
E|4~--------------|
            
Hard to play? Try these video lessons and learn fast. | Correct




comments powered by Disqus
↑ Back to top | Tablatures and chords are parodies/interpretations of the original songs. You may use it for private study, scholarship, research or language learning purposes only