» » »

Pear Tree Tabs (ver.1)

Artists:  A B C D E F G H I J K L M N O P Q R S T U V W X Y Z # 

Pear Tree Tabs (ver.1)

We Were Promised Jetpacks
Rating:
0/5 (0 votes)

Hard to play? Try these video lessons and learn fast.
                Tabs of "Pear Tree", from We Were Promised Jetpacks
Try with an acoustic guitar, it sounds better...
Hope you enjoy! (:

----------------------------------------------------

"With balloons tied loose around your neck..."

e|---------------------------|
B|-0----0----0--0---0--0--0--|
G|-0----0----0--0---0--0--0--|
D|-9----9----9--9---7--7--7--|
A|-10---10---10-10--10-10-10-|
E|-0--0-0--0-0--0---0--0--0--|


"With an eye for your madness..."
e|-0~-----0~-|
B|-3~-----3~-|
G|-0~-----0~-|
D|-2~-----0~-|
A|-3~-----3~-|
E|-----------|


"While I'm here..."          "It's all these people..."
e|--------------------------|-------|
B|--------------------------|-------|
G|--------------------------|--0~---|
D|--9---9---9--9----9--9----|--9~---|
A|--9---9---10-10---10-10---|--10~--|
E|--0-0-0-0-0--0--0-0--0--0-|--9~---|


"If you'd be my pear, then I'll be your tree..."
e|-----------------------------------------------------|
B|-----------------------------------------------------|
G|-----------------------------------------------------|
D|---9-9-9-------9-9-9------------9-9-9------9-9-9-----|
A|----9-9--...----9-9--...---------9-9--...---9-9--...-|
E|-0-----------10----------------7----------7----------|


You could do these chords in the end

e|-----------------------|
B|-8~----7~----7~----7~--|
G|-8~----8~----8~----8~--|
D|-9~----9~----9~----9~--|
A|-9~----9~----9~----9~--|
E|-0~---10~----7~----7~--|

------------------------------------------------------------
            
Hard to play? Try these video lessons and learn fast. | Correct




comments powered by Disqus
↑ Back to top | Tablatures and chords are parodies/interpretations of the original songs. You may use it for private study, scholarship, research or language learning purposes only