» » »

Lets Call This A Map Bass tabs (ver.1)

Artists:  A B C D E F G H I J K L M N O P Q R S T U V W X Y Z # 

Lets Call This A Map Bass tabs (ver.1)

We Were Promised Jetpacks
Rating:
5/5 (1 vote)

Hard to play? Try these video lessons and learn fast.
                This song is freakin' awesome. It's so intense and full of energy. 
I can't figure out the guitar part at all but here's the bass part.
This song is great for playing fingered bass. Pick-free is the way
to be!

(0:00)
G|--------------------------------|--------------------------------|
D|6-6-6-4-4-4-6-6-6-4-4-4-6---4---|4-4-4-2-2-2-4-4-4-2-2-2-4---2---|
A|--------------------------------|--------------------------------|
E|--------------------------------|--------------------------------|

G|--------------------------------|--------------------4---6~------|
D|6-6-6-4-4-4-6-6-6-4-4-4-6---4---|4-4-4-2-2-2-2-4-6---------------|
A|--------------------------------|--------------------------------|
E|--------------------------------|--------------------------------|


(0:11)
G|------------------------9-------|------------9-------------------|
D|--------11--7-9-------------11\\|--------9-----------------------|
A|9--9--9---9-----9--9--9---9-----|7--7--7---7---7-7--7--7-7--7--7-|
E|--------------------------------|--------------------------------|

G|------------9-----------9-------|------------9-------------------|
D|--------117---7-------------11\\|--------9-6---6-----------------|
A|9--9--9---------9--9--9---9-----|7--7--7---------7--7--7-7--7--7-|
E|--------------------------------|--------------------------------|


(0:49)
G|--------------------------------|
D|--------------------------------|
A|7--7--7-7--7--7-7--7--7-7--7--7-|
E|--------------------------------|


(0:56)
G|--------------------------------|--------------------------------|
D|9-----9-11----11-7---7--9--7----|11----11-9----9-12-----12-11----|
A|------------------------------9-|-----------------------------12-|
E|--------------------------------|--------------------------------|


(1:16)
G|--------------------------------|----------------7--7--7-7--7--7-|
D|9-----9-11----11-7---7--9--7----|11-11-1111-11-11----------------|
A|------------------------------9-|--------------------------------|
E|--------------------------------|--------------------------------|

G|9--9--9-9--9--9-11-11-1111-11-11|
D|--------------------------------|
A|--------------------------------|
E|--------------------------------|


(1:26)
G|------------------------9-------|------------9-------------------|
D|--------11--7-9-------------11\\|--------9-----------------------|
A|9--9--9---9-----9--9--9---9-----|7--7--7---7---7-7--7--7-7--7--7-|
E|--------------------------------|--------------------------------|

G|------------9-----------9-------|------------9-------------------|
D|--------117---7-------------11\\|--------9-6---6-----------------|
A|9--9--9---------9--9--9---9-----|7--7--7---------7--7--7-7--7--7-|
E|--------------------------------|--------------------------------|


(2:04)
G|--------------------------------|
D|--------------------------------|
A|7--7--7-7--7--7-7--7--7-7--7--7-|
E|--------------------------------|


(2:11)
G|--------------------------------|--------------------------------|
D|9-----9-11----11-7---7--9--7----|11----11-9----9-12-----12-11----|
A|------------------------------9-|-----------------------------12-|
E|--------------------------------|--------------------------------|


(2:34)
G|--------------------------------|----------------7--7--7-7--7--7-|
D|9-----9-11----11-7---7--9--7----|11-11-1111-11-11----------------|
A|------------------------------9-|--------------------------------|
E|--------------------------------|--------------------------------|

G|9--9--9-9--9--9-11-11-1111-11-11|
D|--------------------------------|
A|--------------------------------|
E|--------------------------------|


(2:41)
G|--------------------------------|--------------------------------|
D|7--7--7-7--7--7-7--7--7-7--7--7-|7--7--7-7--7--7-7--7--7-7--7--7-|
A|--------------------------------|--------------------------------|
E|--------------------------------|--------------------------------|

G|--------------------------------|--------------------------------|
D|6--6--6-6--6--6-6--6--6-6--6--6-|6--6--6-6--6--6-6--6--6-6--6--6-|
A|--------------------------------|--------------------------------|
E|--------------------------------|--------------------------------|


(3:10)
G|--------------------------------|--------------------------------|
D|7-7-7-7-7-7-7-7-7-7-7-7-7-7-7-7-|--------------------------------|
A|--------------------------------|9-9-9-9-9-9-9-9-9-9-9-9-7---7---|
E|--------------------------------|--------------------------------|


(3:22)
G|--------14--------------14------|--------11----------------------|
D|----14------14------14------14--|----11------11------11----------|
A|1212--12--12--121212--12--12--12|9-9---9---9---9-9-9---9-7---7---|
E|--------------------------------|--------------------------------|

G|--------14--------------14------|--------11--------------------9-|
D|----14------14------14------14--|----11------11------11------9---|
A|1212--12--12--121212--12--12--12|9-9---9---9---9-9-9---9-7-7-----|
E|--------------------------------|--------------------------------|

G|--------14--------------14------|--------11----------------------|
D|----14------14------14------14--|----11------11------11----------|
A|1212--12--12--121212--12--12--12|9-9---9---9---9-9-9---9-7---7---|
E|--------------------------------|--------------------------------|

G|--------------------------------|--------------------------------|
D|6-6-6-6-6-6-6-6-6-6-6-6-6-6-6-6-|6-6-6-6-6-6-6-6-6-6-6-6-6-6-6-6-|
A|--------------------------------|--------------------------------|
E|--------------------------------|--------------------------------|


(3:53) - Bass solo! Enjoy it!
G|--------------------------------|--------------------------------|
D|9-----9-11----11-7---7--9--7----|11----11-9----9-12-----12-11----|
A|------------------------------9-|-----------------^-----------12-|
E|--------------------------------|----------------stacatto--------|


(4:07)
G|--------------------------------|--------------------------------|
D|9-----9-11----11-7---7--9--7----|11----11-9----9-12-----12-11----|
A|------------------------------9-|-----------------------------12-|
E|--------------------------------|--------------------------------|


(4:30)
G|--------------------------------|----------------7--7--7-7--7--7-|
D|9-----9-11----11-7---7--9--7----|11-11-1111-11-11----------------|
A|------------------------------9-|--------------------------------|
E|--------------------------------|--------------------------------|

G|9--9--9-9--9--9-11-11-1111-11-11|
D|--------------------------------|
A|--------------------------------|
E|--------------------------------|


(4:37) 
End on
G|--------------------------------|--------------------------------|
D|7~------------------------------|--------------------------------|
A|--------------------------------|--------------------------------|
E|--------------------------------|--------------------------------|


(4:45) - You think it's over? The song intro fades in. Only to fade
out again. If you forgot it, here it is:
G|--------------------------------|--------------------------------|
D|6-6-6-4-4-4-6-6-6-4-4-4-6---4---|4-4-4-2-2-2-4-4-4-2-2-2-4---2---|
A|--------------------------------|--------------------------------|
E|--------------------------------|--------------------------------|
            
Hard to play? Try these video lessons and learn fast. | Correct




comments powered by Disqus
↑ Back to top | Tablatures and chords are parodies/interpretations of the original songs. You may use it for private study, scholarship, research or language learning purposes only