» » »

Circles And Squares Tabs (ver.1)

Artists:  A B C D E F G H I J K L M N O P Q R S T U V W X Y Z # 

Circles And Squares Tabs (ver.1)

We Were Promised Jetpacks
Rating:
5/5 (1 vote)

Hard to play? Try these video lessons and learn fast.
                Intro
E]----------------]----------------]----------------]
B]----------------]----------------]----------------]
G]8--8--8---------]8--8--8-9--9--9-]8--8--8-9~------]
D]9--9--9-9--9--9-]9--9--9-9--9--9-]9--9--9-9~------]
A]6--6--6-7--7--7-]9--9--9-7--7--7-]9--9--9-7~------]
E]--------0--0--0-]7--7--7-0--0--0-]7--7--7-0~------]


Verses
  G#m    D#m       G#m    D#m       B       D#m      C#m
E]----------------]----------------]----------------]----------------]
B]----------------]----------------]----------------]----------------]
G]4--4--4-11-11-11]4--4--4-11-11-11]8--8--8-11-11-11]8--8--8-9--9--9-]
D]----------------]----------------]----------------]----------------]
A]----------------]----------------]----------------]----------------]
E]4--4--4-11-11-11]4--4--4-11-11-11]7--7--7-11-11-11]7--7--7-9--9--9-]

E]----------------]----------------]----------------]----------------]
B]----------------]----------------]----------------]----------------]
G]4~--------------]----------------]8~--------------]----------------]
D]----------------]----------------]----------------]----------------]
A]----------------]----------------]----------------]----------------]
E]4~--------------]----------------]7~--------------]----------------]


Bridge
Guitar 1
E]----------------]----------------]----------------]----------------]
B]----------------]----------------]----------------]----------------]
G]4--6--8-4--6--8-]4--6--8-4--6--8-]4--6--8-4--6--8-]4--6--8-4--6--8-]
D]----------------]----------------]----------------]----------------]
A]----------------]----------------]----------------]----------------]
E]----------------]----------------]----------------]----------------]

Guitar 2
  G#m                      F#       B                E       D#m
E]----------------]----------------]----------------]----------------]
B]----------------]----------------]----------------]----------------]
G]4~--------------]--------3~------]8~--------------]1~------11~-----]
D]----------------]----------------]----------------]----------------]
A]----------------]----------------]----------------]----------------]
E]4~--------------]--------2~------]7~--------------]0~------11~-----]


Outro
Guitar 1 - Tremolo Picking
E]----------------]----------------]----------------]----------------]
B]----------------]----------------]----------------]----------------]
G]4~~~~~~~~~~~~~~~]~~~~~~~~8~~~~~~~]4~~~~~~~~~~~~~~~]~~~~~~~~8~~~~~~~]
D]----------------]----------------]----------------]----------------]
A]----------------]----------------]----------------]----------------]
E]----------------]----------------]----------------]----------------]

Guitar 2
  D#m                               E
E]----------------]----------------]----------------]----------------]
B]----------------]----------------]----------------]----------------]
G]11-11-11-11-11--]11-11-11-11-11--]13-13-13-13-13--]13-13-13-13-13--]
D]----------------]----------------]----------------]----------------]
A]----------------]----------------]----------------]----------------]
E]11-11-11-11-11--]11-11-11-11-11--]12-12-12-12-12--]12-12-12-12-12--]

  F#                                E
E]----------------]----------------]----------------]----------------]
B]----------------]----------------]----------------]----------------]
G]15-15-15-15-15--]15-15-15-15-15--]13-13-13-13-13--]13-13-13-13-13--]
D]----------------]----------------]----------------]----------------]
A]----------------]----------------]----------------]----------------]
E]14-14-14-14-14--]14-14-14-14-14--]12-12-12-12-12--]12-12-12-12-12--]
            
Hard to play? Try these video lessons and learn fast. | Correct




comments powered by Disqus
↑ Back to top | Tablatures and chords are parodies/interpretations of the original songs. You may use it for private study, scholarship, research or language learning purposes only