» » »

We The Kings, Whoa Tabs (ver.1)

Artists:  A B C D E F G H I J K L M N O P Q R S T U V W X Y Z # 

Whoa Tabs (ver.1)

We The Kings Tabs
 Rating:
4/5 (4 votes)
Whoa lessons Tabs too difficult? Try these video lessons and learn fast
1
                Tuning: Drop D [ D A D G B E ]


Intro (Lead Guitar)
E|---------------------------------------------------------------------------|
B|----------9-6-------6-----9-6-----6-------9-6-------6-----9-6-----6--------|
G|------6-6--6--6-6-8---6-6--6--6-6---8-6-6--6--6-6-8---6-6--6--8-8---8-6-6~-|
D|--6h8----------------------------------------------------------------------|
A|---------------------------------------------------------------------------|
D|---------------------------------------------------------------------------|

Intro (Rhythm Guitar)
E|---------------------------------------------------------------------------|
B|---------------------------------------------------------------------------|
G|-------------6------------------------------6-------------------666--------|
D|--4----------6-(x8)----6---------4----------6-(x8)---6-6-6-6----666--------|
A|--4-(x16)----4---------6-(x8)----4-(x16)----4--------6-6-6-6----444--------|
D|--4--------------------6---------4-------------------6-6-6-6---------------|



"Sleep well, tucked tight..."

Verse (Lead Guitar)
E|--9-9-9-9-9-9-9-9--8-8-8-8-8-8-8-8--9-9-9-9-9-9-9-9-9-9-9-9-9-9-9-9--------|
B|---9-9-9-9-9-9-9-9--9-9-9-9-9-9-9-9--9-9-9-9-9-9-9-9-9-9-9-9-9-9-9-9-------|
G|---------------------------------------------------------------------------|
D|---------------------------------------------------------------------------| x2
A|---------------------------------------------------------------------------|
D|---------------------------------------------------------------------------|

Verse (Rhythm Guitar)
E|---------------------------------------------------------------------------|
B|---------------------------------------------------------------------------|
G|--6-----------------------6------------------------------------------------|
D|--6~----6-----4-----4-----6-(x16)----6----------4--------------------------|
A|--4-----6~----4~----4~----4----------6-(x16)----4-(x32)--------------------|
D|--------6-----4-----4----------------6----------4--------------------------|

"We will brawl for the cause..."

Pre-Chorus (Lead + Rhythm Guitars)
E|---------------------------------------------------------------------------|
B|---------------------------------------------------------------------------|
G|---------------------------------------------------------------------------|
D|--1-----3-----4-----1-----3-----x--x---------------------------------------|
A|--1~----3~----4~----1~----3~----x--x---------------------------------------|
D|--1-----3-----4-----1-----3-----x--x---------------------------------------|

"Whoa Oh..."

Chorus (Lead + Rhythm Guitars)
E|---------------------------------------------------------------------------|
B|---------------------------------------------------------------------------|
G|---------------------------------------------------------------------------|
D|--8--------6--------1--------4--------8--------6--------1--1--1--1--1-1----|
A|--8-(x8)---6-(x8)---1-(x8)---4-(x8)---8-(x8)---6-(x8)---1~-1~-1~-1~-1-1----|
D|--8--------6--------1--------4--------8--------6--------1--1--1--1--1-1----|

"Beggars and thieves..."

Verse (Lead Guitar)
E|--9-9-9-9-9-9-9-9--8-8-8-8-8-8-8-8--9-9-9-9-9-9-9-9-9-9-9-9-9-9-9-9--------|
B|---9-9-9-9-9-9-9-9--9-9-9-9-9-9-9-9--9-9-9-9-9-9-9-9-9-9-9-9-9-9-9-9-------|
G|---------------------------------------------------------------------------|
D|---------------------------------------------------------------------------| x2
A|---------------------------------------------------------------------------|
D|---------------------------------------------------------------------------|

Verse (Rhythm Guitar)
E|---------------------------------------------------------------------------|
B|---------------------------------------------------------------------------|
G|--6-----------------------6------------------------------------------------|
D|--6~----6-----4-----4-----6-(x16)----6----------4--------------------------|
A|--4-----6~----4~----4~----4----------6-(x16)----4-(x32)--------------------|
D|--------6-----4-----4----------------6----------4--------------------------|

"We will brawl for the cause..."

Pre-Chorus (Lead + Rhythm Guitars)
E|---------------------------------------------------------------------------|
B|---------------------------------------------------------------------------|
G|---------------------------------------------------------------------------|
D|--1-----3-----4-----1-----3-----x--x---------------------------------------|
A|--1~----3~----4~----1~----3~----x--x---------------------------------------|
D|--1-----3-----4-----1-----3-----x--x---------------------------------------|

Chorus (Lead + Rhythm Guitars)
E|---------------------------------------------------------------------------|
B|---------------------------------------------------------------------------|
G|---------------------------------------------------------------------------|
D|--8--------6--------1--------4--------8--------6--------1--1--1--1--1-1----| x2
A|--8-(x8)---6-(x8)---1-(x8)---4-(x8)---8-(x8)---6-(x8)---1~-1~-1~-1~-1-1----|
D|--8--------6--------1--------4--------8--------6--------1--1--1--1--1-1----|

Bridge (Lead Guitar)
E|---------------------------------------------------------------------------|
B|----------9-6-------6-----9-6-----6-------9-6-------6-----9-6-----6--------|
G|------6-6--6--6-6-8---6-6--6--8-8---8-6-6--6--6-6-8---6-6--6--8-8---8-6-6~-|
D|--6h8-----------------------------------*----------------------------------|
A|----------------------------------------*----------------------------------|
D|----------------------------------------*----------------------------------|

Bridge (Rhythm Guitar) Enters when Lead Guitar reaches indicated spot above (*)
E|---------------------------------------------------------------------------|
B|---------------------------------------------------------------------------|
G|------------------------------------------------------6--------------------|
D|----------------------------------------*--4----------6-(x8)---6-6-6-6-----|
A|----------------------------------------*--4-(x16)----4--------6-6-6-6-----|
D|----------------------------------------*--4-------------------6-6-6-6-----|

"I know we won't get caught..."

Bridge pt.2 (Lead + Rhythm Guitars)
E|---------------------------------------------------------------------------|
B|---------------------------------------------------------------------------|
G|---------------------------------------------------------------------------|
D|--1---------3---------4----------1---------3---------8-----8---------------|
A|--1-(x8)----3-(x8)----4-(x16)----1-(x8)----3-(x8)----8~----8~--------------|
D|--1---------3---------4----------1---------3---------8-----8---------------|

"Whoa Oh..."

Chorus (Lead + Rhythm Guitars)
E|---------------------------------------------------------------------------|
B|---------------------------------------------------------------------------|
G|---------------------------------------------------------------------------|
D|--8---------6---------1---1---1---1---1--1---------------------------------|
A|--8-(x8)----6-(x8)----1~--1~--1~--1~--1--1---------------------------------|
D|--8---------6---------1---1---1---1---1--1---------------------------------|


E|---------------------------------------------------------------------------|
B|---------------------------------------------------------------------------|
G|---------------------------------------------------------------------------|
D|--8--------6--------1--------4--------8--------6---------1-----1-----1-----|
A|--8-(x8)---6-(x8)---1-(x8)---4-(x8)---8-(x8)---6-(x8)----1~----1~----1~----|
D|--8--------6--------1--------4--------8--------6---------1-----1-----1-----|


| /  slide up
| \  slide down
| h  hammer-on
| p  pull-off
| ~  vibrato / Soaring Chord
| +  harmonic
| x  Mute note
            
Submit corrections

comments powered by Disqus
↑ Back to top | We The Kings Tabs for Whoa. Lyrics for acoustic guitar and electric guitar. 1 Tablatures and chords are parodies/interpretations of the original songs. You may use it for private study, scholarship, research or language learning purposes only