» » »

We The Kings, Well Be A Dream Tabs (ver.2)

Artists:  A B C D E F G H I J K L M N O P Q R S T U V W X Y Z # 

Well Be A Dream Tabs (ver.2)

We The Kings Tabs
 Rating:
4/5 (4 votes)
Well Be A Dream lessons Tabs too difficult? Try these video lessons and learn fast
                Sorry, if it's wrong. I learned this by ear. And I thought it was pretty accurate. So here :)


Intro:

               A                                       D
e|---------0-----------0----------|     |--------0----------0------------|
B|---2-----------2----------------|     |---3---------3------------------|
G|------2-----2-----2-----2-------|     |------2---2-----2----2----------| x2
D|--------------------------------| x2  |--------------------------------|  
A|--------------------------------|     |--------------------------------|
E|--------------------------------|     |--------------------------------|

                    A                   D
e|---------0-----------0----------0-----------0----------|
B|---2-----------2-----------2----------3----------------|
G|------2-----2-----2-----2-----2----2-----2-------------| 
D|-------------------------------------------------------|  
A|-------------------------------------------------------|
E|-------------------------------------------------------|

               E                                        
e|---------0-----------0----------|     
B|---0-----------0----------------|     
G|------1-----1-----1-----1-------| x2
D|--------------------------------|    
A|--------------------------------|   
E|--------------------------------| 



A                      D
Do you remember the nights 
                    A
We'd stay up just laughing 
             E            A
Smiling for hours at anything 
             D
Remember the nights 
                 A        E
We drove around crazy in love 

         D     E    A
When the lights go out 
         D      E     A
We'll be safe and sound 
             D              E
We'll take control of the world 
          F#m       A          D
Like it's all we have to hold on to 
          E      A
And we'll be a dream 

D      A      E

A                       D
Do you remember the nights 
                     A
We made our way dreaming 
            E            A
Hoping of being someone big 
              D
We were so young then 
               A         E
We were too crazy in love 

         D     E    A
When the lights go out 
         D      E     A
We'll be safe and sound 
             D              E
We'll take control of the world 
          F#m       A          D
Like it's all we have to hold on to 
          E      F#m
And we'll be a dream 

      A
Whoa whoa
F#m    A 
Whoa whoa 
F#m    A     E
Whoa whoa 


         D     E    A
When the lights go out 
         D      E     A
We'll be safe and sound 
             D              E
We'll take control of the world 
          F#m       A          D
Like it's all we have to hold on to 
          E      
And we'll be 


         D     E    A
When the lights go out 
         D      E     A
We'll be safe and sound 
             D              E
We'll take control of the world 
          F#m       A          D
Like it's all we have to hold on to 
          E      A
And we'll be a dream 
            
Submit corrections

comments powered by Disqus
↑ Back to top | We The Kings Tabs for Well Be A Dream. Lyrics for acoustic guitar and electric guitar. Tablatures and chords are parodies/interpretations of the original songs. You may use it for private study, scholarship, research or language learning purposes only