>
 >
Skyway Avenu

Skyway Avenu Guitar Tabs

We The Kings - Skyway Avenu chords, tabs, tablatures, lyrics

Guitar lessons | Add/correct | Request | Top 50 tabs Artists:  A B C D E F G H I J K L M N O P Q R S T U V W X Y Z 0-9

Skyway Avenu Guitar Tabs – We The Kings

CD, Sheet music, Poster

Do you like Skyway Avenu? Share with your friends now
Tabs

Intro
d#|----10----10-----10-----10-----10-10-10-|
A#|-----8-----8------8------8------8--8--8-|
F#|-00--0--0--0--00--0--00--0--00--0--0--0-|
C#|----------------------------------------|
G#|----------------------------------------|
C#|----------------------------------------|
    **     *     **     **     **  

d#|----10----10-----10-----10-|
A#|-----8-----8------8------8-|
F#|-00--0--0--0--00--0--00--0-|
C#|---------------------------|
G#|---------------------------|
C#|---------------------------|
    **     *     **     **

then play this over the top when the band kicks in
d#|--------------------------------------------------------|
A#|-12-13-12--------15-----------12-13-12--------15--------|
F#|----------14--12-----12-11-12----------14--12-----12-11-| x2
C#|--------------------------------------------------------|
G#|--------------------------------------------------------|
C#|--------------------------------------------------------|

Verse 1 (play this all the way through both verse till you get to)
d#|-------------------------------------------------------------|
A#|-------------------------------------------------------------|
F#|-55-5-5-5-55-5-55-5-55-4-4-4--------------7-77-7--777--7-7-7-|
C#|-55-5-5-5-55-5-55-5-55-5-5-5-55-5-5-5-55--7-77-7--777--7-7-7-|
G#|-33-3-3-3-33-3-33-3-33-3-3-3-55-5-5-5-55--5-55-7--777--7-7-7-|
C#|-----------------------------55-5-5-5-55---------------------|
    **   *   **   **   **       **   *   **    *   **   **   **

(this part, which is played in clean b4 the chorus)
d#|------------|
A#|------------| still verse 1
F#|-4-----5--7-|
C#|-4--2--5--7-|(play twice b4 chorus)
G#|-2--2--3--5-|
C#|----2-------|

pause with drums only 
then play this for the chorus  (chorus)
d#|---------------------------------------------------------------|
A#|---------------------------------------------------------------|
F#|---------------------------------------------------------------|
C#|-5--5--5-5-5-5-0--0--0-0-0-0-2--2--2-2-2-2-10--10--10-10-10-10-| x2
G#|-5--5--5-5-5-5-0--0--0-0-0-0-2--2--2-2-2-2-10--10--10-10-10-10-|
C#|-5--5--5-5-5-5-0--0--0-0-0-0-2--2--2-2-2-2-10--10--10-10-10-10-|

(still chorus)
d#|----------------------------------------------------------|
A#|----------------------------------------------------------|
F#|----------------------------------------------------------|
C#|-5--5--5-5-5-0--0--0-0-0--2--2--2-2-2-10--10--10-10-10-10-|
G#|-5--5--5-5-5-0--0--0-0-0--2--2--2-2-2-10--10--10-10-10-10-|
C#|-5--5--5-5-5-0--0--0-0-0--2--2--2-2-2-10--10--10-10-10-10-|

   (end of chorus)
d#|--------------------------------------|
A#|--------------------------------------|
F#|--------------------------------------|
C#|-7--7--7-7-7-7-10--10--10-10-10-10-12-|
G#|-7--7--7-7-7-7-10--10--10-10-10-10-12-|
C#|-7--7--7-7-7-7-10--10--10-10-10-10-12-|

staright back in to verse 2
then the chorus again after that

then after that chorus play this
d#|--------------------------|
A#|--------------------------|  (bridge)
F#|--------------------7-----|
C#|-2-----10-----5-----7-x16-| x2
G#|-2-x16-10-x16-5-x16-5-----|
C#|-2-----10-----5-----------|

solo
d#|--------------------------------------------------------|
A#|-12-13-12--------15-----------12-13-12--------15--------|
F#|----------14--12-----12-11-12----------14--12-----12-11-|
C#|--------------------------------------------------------|
G#|--------------------------------------------------------|
C#|--------------------------------------------------------|

d#|----------------------------------|
A#|-12-13-12--------15---------------|
F#|----------14--12-----12-11-12--12-|
C#|----------------------------------|
G#|----------------------------------|
C#|----------------------------------|

d#|----------|
A#|----------|
F#|--------7-|
C#|-10--5--7-| (chors over the solo)
G#|-10--5--5-|
C#|-10--5----|

(pause no one playes, band comes back in when travi sings the word jump)
 then the chorus kicks in again here

d#|---------------------------------------------------------------|
A#|---------------------------------------------------------------|
F#|---------------------------------------------------------------|
C#|-5--5--5-5-5-5-0--0--0-0-0-0-2--2--2-2-2-2-10--10--10-10-10-10-| x2
G#|-5--5--5-5-5-5-0--0--0-0-0-0-2--2--2-2-2-2-10--10--10-10-10-10-|
C#|-5--5--5-5-5-5-0--0--0-0-0-0-2--2--2-2-2-2-10--10--10-10-10-10-|

(still chorus)
d#|----------------------------------------------------------|
A#|----------------------------------------------------------|
F#|----------------------------------------------------------|
C#|-5--5--5-5-5-0--0--0-0-0--2--2--2-2-2-10--10--10-10-10-10-|
G#|-5--5--5-5-5-0--0--0-0-0--2--2--2-2-2-10--10--10-10-10-10-|
C#|-5--5--5-5-5-0--0--0-0-0--2--2--2-2-2-10--10--10-10-10-10-|

   (end of chorus)
d#|--------------------------------------|
A#|--------------------------------------|
F#|--------------------------------------|
C#|-7--7--7-7-7-7-10--10--10-10-10-10-12-|
G#|-7--7--7-7-7-7-10--10--10-10-10-10-12-|
C#|-7--7--7-7-7-7-10--10--10-10-10-10-12-|

   (end of chorus)
d#|---------------|
A#|---------------|
F#|---------------|
C#|-7--10--12---5-|
G#|-7--10--12---5-| (let ring for about 5-8 seconds)
C#|-7--10--12---5-|

lyrics
She said let's change our luck
this night is all we've got 
drive fast until we crash
this dead end life
sweet dreams that won't come true
I'd leave it all for you
brick walls are closing in 
let's make a run tonight

blinded by the lights
hold you through forever
Won't let you go

cause if you jump 
I will jump too
we will fall together
never looking back at what we've done
we'll say it was love
cause I would die for you
on skyway avenue

she said don't change your mind
let's leave this town behind
we'll race right off the cliff
they will remember this
it all got so mundane
with you I'm back again
just take me by the hand
we're close to the edge

blinded by the lights
hold you through forever
never let you go

cause if you jump 
I will jump too
we will fall together
never looking back at what we've done
we'll say it was love
cause I would die for you
on skyway avenue

where are your guts to fly
soaring through, through the night
and if you take that last step
I'll follow you
leave the edge and fly
we're finally alive

cause if you jump 
I will jump too
we will fall together
never looking back at what we've done
we'll say it was love
cause I would die for you
on skyway avenue
so what's left to prove
we have made it through

well that's it from me guys, i havn't done a tab in a while
but this band inspired me to do one for them
i hope it's write
sounds write to me but that's for you guys to decide
so let me know you're thoughts and comments
if you missed my msn up the top there
plz don't add me if you do not lie in australia
cause you'll neva catch me cause of your time zone
anyway guys
talk to you all soon

thanx
Benny
Downes





Comments


Popular We The Kings tabs & chords
Secret Valentine 3 Bass Tabs
The Quiet Bass Tabs
Well Be A Dream Bass Tabs
As Long As You Love Me Chords
Over You Chords
Skyway Avenue 5 Chords
Skyway Avenue 6 Chords
The Quiet 1 Chords
What You Do To Me Tabs
Whoa Tabs


Song lyrics



↑ Back to top | Tablatures and chords are parodies/interpretations of the original songs. You may use it for private study, scholarship, research or language learning purposes only
© 2014 AZChords.com Contact us | Privacy policy | DMCA | Add/correct tabs | Request tabs | Top 50 tabs