» » »

Secret Valentine Tabs (ver.7)

Artists:  A B C D E F G H I J K L M N O P Q R S T U V W X Y Z # 

Secret Valentine Tabs (ver.7)

We The Kings
Rating:
0/5 (0 votes)

Tabs too difficult? Try these video lessons and learn fast.
                ----------------------------------------------------------------------------
                           Secret Valentine(Acoustic)
                                by  We The Kings
----------------------------------------------------------------------------


Note: To all of you fellow guitarists out there; this is my very first tab(s) and i
it. and if there's any mistake, apologies to all individuals ;D and honestly this tab is a
of most tabs i've seen. all of them are not copyright. this tab can also be used for 
guitars just alil' twist in it but totally the exact same tab(s).

Tuning: Drop D (D A D G B e)

Intro('Piano' Part): (Played w/o Distortion 3 times by Lead on guitar.)
e|----------------------------------------------------------------------|
B|----------------------------------------------------------------------|
G|--5---5---5----5---4---4---4---4--4-5----5---5---5----5---5---5---5---|
D|---5-5-5-5-5-5-5-5-5-5-5-5-5-5-----7-7-7-7-7-7-7-7-5-5-5-5-5-5-5-5-5--|
A|----7----7---7---7---7---7---7---7-----7---7----7---7----8---8--8---8-|
E|----------------------------------------------------------------------|


Intro(After 'Piano' Part & Starts Into The Song):
|----------------|
|---9--7--6----6-|
|-6--6--6--6--8--|
|----------------|       (Play It 4 Times By Rhythm)
|----------------|
|----------------|

Lead:
|--------------------------------------------------------------------|
|--------------------------------------------------------------------|
|-6666666666666666---------------------------------------------------|
|-6666666666666666-6666666666666666-44444444444444444444444444444444-|
|-4444444444444444-6666666666666666-44444444444444444444444444444444-|
|------------------6666666666666666-44444444444444444444444444444444-|


Verse 1: (“Soft kiss and wine..........We will come alive tonight.”)
|---------------------------------------------------------------------|
|---------------------------------------------------------------------|
|-6666666666666666------------------------------------------666--555--|
|-6666666666666666-6666666666666666-444444444444444444444444444444444-|
|-4444444444444444-6666666666666666-444444444444444444444444444444444-|
|------------------6666666666666666-444444444444444444444444444444444-|
PM .. .. .. .. .. .. .. .. .. .. .. .. .. .. .. .. .. .. ..    ..   ..

(“Secret Valentine.”)
|----------|
|----------|
|----------|
|-4~----6~-|
|-4~----6~-|
|-4~----6~-|

Chorus:
|--------------------------------------------------------------------|
|--------------------------------------------------------------------|
|-6--------8--------3-----------------6--------8-------3-------------|
|-6-(x8)---6--------3-(x8)--4---------6-(x8)---6-------3-(x8)-4------|
|-4--------6-(x8)---1-------4-(x8)----4--------6-(x8)--1------4-(x8)-|
|----------6----------------4------------------6--------------4------|


Verse 2: ("Lay down be still..............I'll take care of you tonight" Played by Rhythm)
|---------------------------------------------------------------------|
|---------------------------------------------------------------------|
|-6666666666666666------------------------------------------666--555--|
|-6666666666666666-6666666666666666-444444444444444444444444444444444-|
|-4444444444444444-6666666666666666-444444444444444444444444444444444-|
|------------------6666666666666666-444444444444444444444444444444444-|
PM .. .. .. .. .. .. .. .. .. .. .. .. .. .. .. .. .. .. ..    ..   ..

Verse 2: (Played by Lead on the 1st e string.)
e|-9 9 9 9 9 9 9 9 9 9 9 9 9 9 9 9 8 8 8 8 8 8 8 8 8 8 8 8 8 8 8 8 6 6 6 6 6 6 6
6 6 6 6 6 6 6 6 6 8 8 8 8 9 9 9 9 11 11 11 11 13 13 13 13 13 13 13 13 13 13-|


Chorus:
|--------------------------------------------------------------------|
|--------------------------------------------------------------------|
|-6--------8--------3-----------------6--------8-------3-------------|
|-6-(x8)---6--------3-(x8)--4---------6-(x8)---6-------3-(x8)-4------|
|-4--------6-(x8)---1-------4-(x8)----4--------6-(x8)--1------4-(x8)-|
|----------6----------------4------------------6--------------4------|

Bridge: (“When guilt fills your head...Brace yourselves for love.”)
|-------------------------------------------------------------|
|-------------------------------------------------------------|
|-3--333--3~--2-222-2~----------------------------------------|
|-3--333--3~--2-222-2~---6-666-6~--5-555-5~--4---------6------|
|-1--111--1~--0-000-0~---6-666-6~--5-555-5~--4-(x8)----6-(x8)-|
|------------------------6-666-6~--5-555-5~--4---------6------|

“Sweet Love...Secret Love”
|-------------------|
|-------------------|
|-------------------|
|-1--------4--------|
|-1-(x8)---4-(x8)---|
|-1--------4--------|

Chorus:
|---------------------------------------------------------------------|
|---------------------------------------------------------------------|
|-6--------8--------3------------------6--------8-------3-------------|
|-6-(x8)---6--------3-(x8)--4----------6-(x8)---6-------3-(x8)-4------|
|-4--------6-(x8)---1-------4-(x8)-----4--------6-(x8)--1------4-(x8)-|
|----------6----------------4-------------------6--------------4------|


Chorus Bridge: ("We'll write a song....When both boys and girls suddenly shaking
Played once by Lead on guitar.)
e|-----------------------------------------------------------------------|
B|-----------------------------------------------------------------------|
G|--5---5---5----5---4---4---4---4--4-5----5---5---5----5---5---5----5---|
D|---5-5-5-5-5-5-5-5-5-5-5-5-5-5-----7-7-7-7-7-7-7-7-5-5-5-5-5-5-5--5-5--|
A|----7----7---7---7---7---7---7---7-----7---7----7---7----8---8---8---8-|
E|-----------------------------------------------------------------------|

Goes Half-way Into Chorus: ("Don't waste your time....We'll hope its not for nothing at all")
|------------------------------------|
|------------------------------------|
|-6--------8-------3-----------------|
|-6-(x8)---6--------3-(x8)--4--------|
|-4--------6-(x8)---1-------4-(x8)---|
|----------6----------------4--------|

Continues The Chorus Once More: ("We'll write a song....We'll hope its not for nothing
all")
|-----------------------------------------------------------------|
|-----------------------------------------------------------------|
|-6--------8--------3-----------------6------8-------3------------|
|-6-(x8)---6--------3-(x8)--4---------6-(x8)-6-------3-(x8)-4-----|
|-4--------6-(x8)---1-------4-(x8)----4------6-(x8)--1------4-(x8)|
|----------6----------------4----------------6--------------4-----|

Ending: ("Nothing at all.")
|------|
|------|
|-6~---|
|-6~---|
|-4~---|
|------|

[Legend:]
PM .. ..  -> Palm Mute.
~         -> Let It Ring.

Done by: Johan :DD

If theres any details you might want to tell me about;
            
Tabs too difficult? Try these video lessons and learn fast.




comments powered by Disqus
↑ Back to top | Tablatures and chords are parodies/interpretations of the original songs. You may use it for private study, scholarship, research or language learning purposes only