» » »

We The Kings, Secret Valentine Tabs (ver.5)

Artists:  A B C D E F G H I J K L M N O P Q R S T U V W X Y Z # 

Secret Valentine Tabs (ver.5)

We The Kings Tabs
 Rating:
4/5 (4 votes)
Secret Valentine lessons Tabs too difficult? Try these video lessons and learn fast
                -------------------------------------------------------------------------------
                             Secret Valentine - We The Kings
-------------------------------------------------------------------------------

i'm pretty sure this is right its my first guitar tab so just play around with it and 
me if there is corrections.

Tuning:standard
 Guitar 1 intro
e|--------------------------------------------|
B|99-77-66-2-4-6------------------------------|
G|--------------------------------------------| 5x
D|--------------------------------------------|
A|--------------------------------------------|
E|--------------------------------------------|
 guitar 2 intro
e|-----------------------------|
B|-----------------------------|
G|6----------------------------|
D|6-(x8)-6------8------4-------|
A|4------6-(x8)-8-(x8)-4-(x8)--|
E|-------4------6------2-------|
 verse
e|--------------------------------|
B|--------------------------------|
G|6-------------------------------|
D|6-(x8)-6------4-----------------|x2
A|4------6-(x8)-4-(x16)-----------|
E|-------4------2-----------------|
 prechorus let them ring
e|---------------------|
B|---------------------|
G|---------------------|
D|4--6-----------------|
A|4--6-----------------|
E|2--4-----------------|
 chorus all chords x16
e|--------------------------|
B|--------------------------|
G|6-------------------------|
D|6-6-8-4-------------------|x2
A|4-6-8-4-------------------|
E|--4-6-2-------------------|
bridge
e|----------------------------------|
B|----------------------------------|
G|---------------------6------------|
D|8------7------6------6------------| x1
A|8-(x4)-7-(x4)-6-(x4)-4------------|
E|6------5------4-------------------|
all chords x8
e|---------------------|
B|---------------------|
G|6--------------------|
D|6-6-8-4--------------|x2
A|4-6-8-4--------------|
E|--4-6-2--------------|
            
Submit corrections

comments powered by Disqus
↑ Back to top | We The Kings Tabs for Secret Valentine. Lyrics for acoustic guitar and electric guitar. Tablatures and chords are parodies/interpretations of the original songs. You may use it for private study, scholarship, research or language learning purposes only