» » »

Make It Or Not Tabs (ver.1)

Artists:  A B C D E F G H I J K L M N O P Q R S T U V W X Y Z # 

Make It Or Not Tabs (ver.1)

We The Kings
Rating:
0/5 (0 votes)

Hard to play? Try these video lessons and learn fast.
                
drop d

Piano:

e|------------------------------------------|
B|---Piano is played throughout whole-------|
G|---song-----------------------------------|
D|------------------------------------------|
A|------------------------------------------|
D|------------------------------------------|


Pre-Chorus:

e|------------------------------------------|
B|------------------------------------------|
G|---8-----6-----------8-----6--------------|
D|---8-----6-----6-----8-----6-----4--------|
A|---6-----4-----6-----6-----4-----4--------|
D|---------------6-----------------4--------|

  ..........................................
                (Palm Mute)

Chorus:

e|------------------------------------------|
B|------------------------------------------|
G|---------6-----6--------------------------|
D|---8-----6-----4-----6--------------------|
A|---8-----4-----4-----6--------------------|
D|---8-----------4-----6--------------------|


Bridge:

e|------------------------------------------|
B|------------------------------------------|
G|------------------------------------------|
D|---6-----4-----8-----6----4-----6---------|
A|---6-----4-----8-----6----4-----6---------|
D|---6-----4-----8-----6----4-----6---------|

(just figure out the rhythm)(just listen to it before playing with it)


Theres the tab for Make It Or Not by We The Kings!!

Buy their new album, Secret Valentine EP!!
            
Hard to play? Try these video lessons and learn fast. | Correct




comments powered by Disqus
↑ Back to top | Tablatures and chords are parodies/interpretations of the original songs. You may use it for private study, scholarship, research or language learning purposes only