» » »

Heaven Can Wait Tabs (ver.4)

Artists:  A B C D E F G H I J K L M N O P Q R S T U V W X Y Z # 

Heaven Can Wait Tabs (ver.4)

We The Kings
Rating:
5/5 (4 votes)
Tabs too difficult? Try these video lessons and learn fast.
                hey guys. this is what i got from their acoustic version of heaven can wait song.and I'm 
sure if it is correct, but its sounded fine for me =).
and, yeah. this is my first tab =).i love this song.
enjoy.

-LEAD-

INTRO:
e|--------6-9--------------------|
B|--7-7-9-----7-7--9--6-6--------|
G|---6---------6-------6---------|
D|-------------------------------|
A|-------------------------------|
D|-------------------------------|

e|----9-6h7-9-7-6--6h7-9-7-6-9-6h7-9-7-6-7-6---------|
B|-----7---------9------------7---------9---9-7------|
G|---------------------------------------------------|
D|---------------------------------------------------|
A|---------------------------------------------------|
D|---------------------------------------------------|

BRIDGE: heaven can wait...
e|--------7-9b-6h7-9-7-6--6h7-9-7-6-9-6h7-9-7-6-7-6---------|
B|--7-9-11----7---------9------------7---------9---9-7------|
G|----------------------------------------------------------|
D|----------------------------------------------------------|
A|----------------------------------------------------------|
D|----------------------------------------------------------|

OUTRO:
e|----9s-6h7-9-7-6--6h7-9-7-6-9-6h7-9-7-6-7-7-6---------|
B|------7---------9------------7---------9-----7b-------|
G|------------------------------------------------------|
D|------------------------------------------------------|
A|------------------------------------------------------|
D|------------------------------------------------------|


for my Ashleydc.
            
Tabs too difficult? Try these video lessons and learn fast.


comments powered by Disqus
↑ Back to top | Tablatures and chords are parodies/interpretations of the original songs. You may use it for private study, scholarship, research or language learning purposes only