>
 >
Feel Good Inc

Feel Good Inc Bass Tabs

We The Kings - Feel Good Inc chords, tabs, tablatures, lyrics

Guitar lessons | Add/correct | Request | Top 50 tabs Artists:  A B C D E F G H I J K L M N O P Q R S T U V W X Y Z 0-9

Feel Good Inc Bass Tabs – We The Kings

CD, Sheet music, Poster

Do you like Feel Good Inc? Share with your friends now
Bass TabsBass Tabs v2TabsTabs v2
#------------------------------------------------------------------------------##

                           FEEL GOOD, INC. (Bassline)
                           As recorded by We The Kings
                       (From the 2008 EP SECRET VALENTINE)


Gtr I (D A D G) - 'Andrew Thomsen'

   4/4
    Gtr I
    Q  E E E E E E   E H    +Q.     Q  E E E E E E   E E H.
||-----------------|--------------|----------------|-----------|
||o----------------|--------------|----------------|-----------|
||o----------------|--------------|----------------|-----------|
||--1----1-3-4---9-|---8----(8)---|-6----6-9-8---4-|---1-1-----|


  Q  E E E E E E   E H    +Q.     Q  E E E E E E   E E Q   E  E  E E  4x
|----------------|--------------|----------------|--------------------||
|----------------|--------------|----------------|-------------------o||
|----------------|--------------|----------------|-------------------o||
|-1----1-3-4---9-|---8----(8)---|-6----6-9-8---4-|---1-1--13-13-13----||


   E  E E q  q  E   +W
|-----------------|--------|
|-----------------|--------|
|-----------------|--------|
|-13-11---8--4--1-|-(1)----|


  Wx4
|--------|
|--------|
|--------|
|--------|


    Q  E E E E E E   E H    +Q.     Q  E E E E E E   E E H.
||-----------------|--------------|----------------|-----------|
||o----------------|--------------|----------------|-----------|
||o----------------|--------------|----------------|-----------|
||--1----1-3-4---9-|---8----(8)---|-6----6-9-8---4-|---1-1-----|


  Q  E E E E E E   E H    +Q.     Q  E E E E E E   E E Q   E  E  E E  3x
|----------------|--------------|----------------|--------------------||
|----------------|--------------|----------------|-------------------o||
|----------------|--------------|----------------|-------------------o||
|-1----1-3-4---9-|---8----(8)---|-6----6-9-8---4-|---1-1--13-13-13----||


  Wx6
|--------|
|--------|
|--------|
|--------|


    Q  E E E E E E   E H    +Q.     Q  E E E E E E   E E H.
||-----------------|--------------|----------------|-----------|
||o----------------|--------------|----------------|-----------|
||o----------------|--------------|----------------|-----------|
||--1----1-3-4---9-|---8----(8)---|-6----6-9-8---4-|---1-1-----|


  Q  E E E E E E   E H    +Q.     Q  E E E E E E   E E Q   E  E  E E  4x
|----------------|--------------|----------------|--------------------||
|----------------|--------------|----------------|-------------------o||
|----------------|--------------|----------------|-------------------o||
|-1----1-3-4---9-|---8----(8)---|-6----6-9-8---4-|---1-1--13-13-13----||


  Q  E E E E E E   E H    +Q.     Q  E E E E E E   E E H.
|----------------|--------------|----------------|-----------|
|----------------|--------------|----------------|-----------|
|----------------|--------------|----------------|-----------|
|-1----1-3-4---9-|---8----(8)---|-6----6-9-8---4-|---1-1-----|


  Q  E E E E E E   E H    +Q.     Q  E E E E E E   +W
|----------------|--------------|----------------|--------*|
|----------------|--------------|----------------|--------*|
|----------------|--------------|----------------|--------*|
|-1----1-3-4---9-|---8----(8)---|-6----6-9-8---4-|-(4)----*|


Duration Legend
---------------
W - whole; H - half; Q - quarter; E - 8th; S - 16th; T - 32nd; X - 64th; a - acciaccatura
+ - note tied to previous; . - note dotted; .. - note double dotted
Uncapitalized letters represent notes that are staccato (1/2 duration)
Irregular groupings are notated above the duration line
Duration letters will always appear directly above the note/fret number it represents the
duration for.  Duration letters with no fret number below them represent rests.  Multi-
bar rests are notated in the form Wxn, where n is the number of bars to rest for.  Low
melody durations appear below the staff

Tablature Legend
----------------
 h   - hammer-on
 p   - pull-off
 b   - bend
 pb  - pre-bend
 r   - bend release (if no number after the r, then release immediately)
 /\  - slide into or out of (from/to "nowhere")
 s   - legato slide
 S   - shift slide
  - natural harmonic
[n]  - artificial harmonic
n(n) - tapped harmonic
 ~   - vibrato
 tr  - trill
 T   - tap
 TP  - trem. picking
 PM  - palm muting
\n/  - tremolo bar dip; n = amount to dip
 \n  - tremolo bar down
 n/  - tremolo bar up
/n\  - tremolo bar inverted dip
 =   - hold bend; also acts as connecting device for hammers/pulls
 <>  - volume swell (louder/softer)
 x   - on rhythm slash represents muted slash
 o   - on rhythm slash represents single note slash

Misc Legend
-----------
 |  - bar
||  - double bar
||o - repeat start
o|| - repeat end
*|  - double bar (ending)
 :  - bar (freetime)
 $  - Segno
 &  - Coda
Tempo markers -  = BPM(8/16=s8/s16), where s8 = swing 8ths, s16 = swing 16ths





Comments


Popular We The Kings tabs & chords
Secret Valentine 2 Bass Tabs
Every Single Dollar 1 Chords
Find You There 2 Chords
Say You Like Me 5 Chords
Well Be A Dream 1 Chords
Check Yes Juliet Tabs
The Story Of Your Life Tabs
Whoa Tabs
Every Single Dollar Ukulele
You And Only You Ukulele


Song lyrics



↑ Back to top | Tablatures and chords are parodies/interpretations of the original songs. You may use it for private study, scholarship, research or language learning purposes only
© 2014 AZChords.com Contact us | Privacy policy | DMCA | Add/correct tabs | Request tabs | Top 50 tabs