» » »

We The Kings, Feel Good Inc Tabs (ver.1)

Artists:  A B C D E F G H I J K L M N O P Q R S T U V W X Y Z # 

Feel Good Inc Tabs (ver.1)

We The Kings Tabs
 Rating:
4/5 (4 votes)
Feel Good Inc lessons Tabs too difficult? Try these video lessons and learn fast
                
Bass Part:
g----------------------------------------|
d----------------------------------------|
a----------------------------------------|
e--0---0-2-3-8-7---5--5-8-7-3-0----------|
Played all over the song.


Guitar Part:
Intro:
e---11--11--11--11--9--9--9--9------7--7--7--7--6--6--6--6------------------|
b-----11--11--11--11-11-11-11-11-----8--8--8--8--8--8--8--8-----------------|
g---------------------------------------------------------------------------|
d---------------------------------------------------------------------------|
a---------------------------------------------------------------------------|
e---------------------------------------------------------------------------|
Repeat 4x

Verse:
there is no guitar playing while in verse.

Chorus:
e-----6-------------------6-------------------------------------------------|
b-----7-------------------7-------------------------------------------------|
g-----8-------------------8-------------------------------------------------|
d-----8----8----6----8----8----8----6----8----------------------------------|
a-----6----8----6----8----6----8----6----8----------------------------------|
e----------6----4----6---------6----4----6----------------------------------|

Guitar Part:
e---------------------------------------------------------------------------|
b---------------------------------------------------------------------------|
g---------------------------------------------------------------------------|
d---2---2-4-5-10-9-----7---7-10-9-5-2---------------------------------------|
a---2---2-4-5-10-9-----7---7-10-9-5-2---------------------------------------|
e---0---0-2-3-8--7-----5---5--8-7-3-0---------------------------------------|

This part is distorted and played until the song ends..

im not so sure if this is 100% correct..but the way i play it..i think its 99.9% 
free to leave any comments..take it easy on leaving one coz ive juz play this song for 5 
luck ^^
            
Submit corrections

comments powered by Disqus
↑ Back to top | We The Kings Tabs for Feel Good Inc. Lyrics for acoustic guitar and electric guitar. Tablatures and chords are parodies/interpretations of the original songs. You may use it for private study, scholarship, research or language learning purposes only