» » »

Check Yes Juliet Tabs (ver.2)

Artists:  A B C D E F G H I J K L M N O P Q R S T U V W X Y Z # 

Check Yes Juliet Tabs (ver.2)

We The Kings
Rating:
2.5/5 (50 votes)

Tabs too difficult? Try these video lessons and learn fast.
                We The Kings - Check Yes Juliet (Acoustic Version)

Song is in DROP C

Intro

d:---------------------------------------|
A:---3---2---3---2-----------------------|
F:------------------2--------------------|  x2
C:-0---0---0---0------4------------------|
G:---------------------------------------|
C:---------------------------------------|

d:---------------------------------------|
A:--3—x32--------------------------------|
F:--2------------------------------------|
C:---------9---------5-------------------|
G:---------9-x16-----5-x16---------------|
C:---------9---------5-------------------|

Verse

d:---------------------------------------|
A:---------------------------------------|
F:---7-------4---------------------------|
C:---7-x32---4-x16----5------------------|  x2
G:---5-------2--------5-x16--------------|
C:--------------------5------------------|

Pre-Chorus

d:---------------------------------------|
A:------7--------------------------------|
F:------7-x1-----------------------------|
C:------5--------------------------------|
G:---------------------------------------|
C:---------------------------------------|

Lace up your shoes!
Eh oh, Eh oh oh         For this part tap your guitar
Here’s How we do

Chorus (Run Baby Run!!)

d:---------------------------------------|
A:---------------------------------------|
F:---------------------------------------|  x4
C:---9------12(0)------5-----7-----------|
G:---9-x8---12(0)-x8---5-x8--7-x8--------|
C:---9------12(0)------5-----7-----------|

--Back to Intro— x1

--Verse 2--
(Play Verse)






Bridge

d:---------------------------------------|
A:---------------------------------------|  Find out the rhythm 
F:---------------------------------------|
C:-555xx222xx000—-7797555xx22xx00-77990--|
G:-555xx222xx000—-7797555xx22xx00-77990--| (let it ring)
C:-555xx222xx000—-7797555xx22xx00-77990--|

d:---------------------------------------|
A:-----3---2---3---3---------------------|
F:--------------------2------------------|
C:---0---0---0---0-------4---------------| x2
G:---------------------------------------|
C:---------------------------------------|

d:---------------------------------------|
A:---------------------------------------|
F:---------------------------------------|
C:---9-------5---------------------------|
G:---9x16----5x16------------------------|
C:---9-------5---------------------------|

--Back to Chorus--
--Palm Mute 2 Measures—-
(Run Baby Run~ TO Give them a Chance~)

--Play Chorus One More Time—

Ending

d:---------------------------------------|
A:---333333333333333---------------------|
F:---222222222222222---------------------|
C:---------------------------------------| (Just Play Until Song Ends)
G:---------------------------------------|
C:---------------------------------------|



d:---------------------------------------|
A:---3---2---3---2-----------------------|
F:------------------2--------------------| 
C:-0---0---0---0--------4----------------|
G:---------------------------------------|
C:---------------------------------------|
(Played on 2nd Guitar if there is)
(Optional)
            
Tabs too difficult? Try these video lessons and learn fast.


comments powered by Disqus
↑ Back to top | Tablatures and chords are parodies/interpretations of the original songs. You may use it for private study, scholarship, research or language learning purposes only