» » »

Check Yes Juliet Tabs (ver.4)

Artists:  A B C D E F G H I J K L M N O P Q R S T U V W X Y Z # 

Check Yes Juliet Tabs (ver.4)

We The Kings
Rating:
5/5 (8 votes)

Hard to play? Try these video lessons and learn fast.
                ----------------------------------------------------------------------------
                             Check Yes Juliet - We the Kings
----------------------------------------------------------------------------
I believe this is all correct(except maybe the breakdown). Im surprised no one
else had this up! This is such a great song. enjoy =]

UDATE: updated the G1 intro
anymore let me know

/=slide
~=hold

Tuning: standard
intro   g1
e|--------------------------------------------------------------------------|
B|--3-2-3-2-----------------------------------------------------------------|
G|----------4-2-------------------------------------------------------------|
D|-0-0-0-0-----------x5-----------------------------------------------------|
A|--------------------------------------------------------------------------|
E|--------------------------------------------------------------------------|
intro   g2
e|--------------------------------------------------------------------------|
B|--------------------------------------------------------------------------|
G|-7------------------------------------------------------------------------|
D|-7-x16--9-----5-----------------------------------------------------------|
A|-5------9-x8--5-x8--------------------------------------------------------|
E|--------7-----3-----------------------------------------------------------|
verse   g1
e|----------------------------------------------------------------------------|
B|--3-2-3-2-------------------------------------------------------------------|
G|----------4-2---------------------------------------------------------------|
D|-0-0-0-0----------x4--------------------------------------------------------|
A|--------------------------listen for entrance-------------------------------|
E|----------------------------------------------------------------------------|
verse   g2
e|--------------------------------------------------------------------------|
B|--------------------------------------------------------------------------|
G|-7------------------------------------------------------------------------|
D|-7-x16--9-----5-----------------------------------------------------------|
A|-5------9-x8--5-x8---x2---------------------------------------------------|
E|--------7-----3-----------------------------------------------------------|
pre-chorus    both guitars
e|-x--------------------------------------------------------------------------|
B|-x--------------------------------------------------------------------------|
G|-x--------------------------------------------------------------------------|
D|-x--follow rythem-----------------------------------------------------------|
A|-x-----------------sounds best on fret 2 in my opinion----------------------|
E|-x--------------------------------------------------------------------------|
chorus        both guitars
e|--------------------------------------------------------------------------|
B|--------------------------------------------------------------------------|
G|--------------------------------------------------------------------------|
D|-9-----12-----5-----7-----------------------------------------------------|
A|-9-x8--12-x8--5-x8--7-x8---------------x4---------------------------------|
E|-7-----10-----3-----5-----------------------------------------------------|
pre-verse     g1
e|--------------------------------------------------------------------------|
B|--3-2-3-2-----------------------------------------------------------------|
G|----------4-2-------------------------------------------------------------|
D|-0-0-0-0--------x2--------------------------------------------------------|
A|--------------------------------------------------------------------------|
E|--------------------------------------------------------------------------|

e|--------------------------------------------------------------------------|
B|--------------------------------------------------------------------------|
G|-7------------------------------------------------------------------------|
D|-7----strum till verse----------------------------------------------------|
A|-5------------------------------------------------------------------------|
E|--------------------------------------------------------------------------|
verse2    both guitars
e|--------------------------------------------------------------------------|
B|--------------------------------------------------------------------------|
G|--7-----------------------------------------------------------------------|
D|--7-x16--9-----5----------------------------------------------------------|
A|--5------9-x8--5-x8--x2---------------------------------------------------|
E|---------7-----3----------------------------------------------------------|
pre-chorus both guitars
e|-x--------------------------------------------------------------------------|
B|-x--------------------------------------------------------------------------|
G|-x--------------------------------------------------------------------------|
D|-x--follow rythem-----------------------------------------------------------|
A|-x--------------------------------------------------------------------------|
E|-x--------------------------------------------------------------------------|
xhorus     both guitars
e|--------------------------------------------------------------------------|
B|--------------------------------------------------------------------------|
G|--------------------------------------------------------------------------|
D|-9-----12-----5-----7-----------------------------------------------------|
A|-9-x8--12-x8--5-x8--7-x8----x4--------------------------------------------|
E|-7-----10-----3-----5-----------------------------------------------------|
breakdown    both guitars
e|--listen close to hear note changes---------------------------------------|
B|------------------------first time----second time-------------------------|
G|---------------------------------------------7~---------------------------|
D|-55555--222222-444444--|-77-7/9/7/5-|-77-7/9-7~--g2-only-holds-last-note--|
A|-55555--222222-444444--|-77-7/9/7/5-|-77-7/9-5~--g1 comes in with intro---|
E|-33333--000000-222222--|-55-5/7/5/3-|-55-5/7------------------------------|
   g1
e|--------------------------------------------------------------------------|
B|--3-2-3-2-----------------------------------------------------------------|
G|----------4-2-----x4------------------------------------------------------|
D|-0-0-0-0------------------------------------------------------------------|
A|--------------------------------------------------------------------------|
E|--------------------------------------------------------------------------|
   g2 ....after two times from g1
e|--------------------------------------------------------------------------|
B|--------------------------------------------------------------------------|
G|--------------------------------------------------------------------------|
D|-12-----5-----------------------------------------------------------------|
A|-12-x8--5-x8--------------------------------------------------------------|
E|-10-----3-----------------------------------------------------------------|

all pause.....

chorus  both guitars
e|----------------------------------------------------------------------------|
B|----------------------------------------------------------------------------|
G|----------------------------------------------------------------------------|
D|-9-----12-----5-----7-------------------------------------------------------|
A|-9-x8--12-x8--5-x8--7-x8----x6----------------------------------------------|
E|-7-----10-----3-----5-------------------------------------------------------|
outro g1
e|--------------------------------------------------------------------------|
B|--3-2-3-2-----------------------------------------------------------------|
G|----------4-2---till the end of the song----------------------------------|
D|-0-0-0-0------------------------------------------------------------------|
A|--------------------------------------------------------------------------|
E|--------------------------------------------------------------------------|
outro g2
e|--------------------------------------------------------------------------|
B|--------------------------------------------------------------------------|
G|-7------------------------------------------------------------------------|
D|-7------strum till the end------------------------------------------------|
A|-5------------------------------------------------------------------------|
E|--------------------------------------------------------------------------|
            
Hard to play? Try these video lessons and learn fast. | Correct




comments powered by Disqus
↑ Back to top | Tablatures and chords are parodies/interpretations of the original songs. You may use it for private study, scholarship, research or language learning purposes only