» » »

All Again For You Bass tabs (ver.1)

Artists:  A B C D E F G H I J K L M N O P Q R S T U V W X Y Z # 

All Again For You Bass tabs (ver.1)

We The Kings
Rating:
3/5 (3 votes)

Hard to play? Try these video lessons and learn fast.
                -------------------------------------------------------------------------------
ALL AGAIN FOR YOU – We the Kings
-------------------------------------------------------------------------------


Tuning: Standard


I’m sorry but I’m tired and lazy. Some of the numbers might be placed not
according to the rhythm. =P
Just listen to the song
*NOTE* this song is played Eb tuning [half step down] but I used octaves
In this tab so u wont have to keep tuning your bass =D


Verse: “I thought of you…”               [these are 1’s, 8’s, then 10’s]
G|---------------------------------------------------------------------------|
D|---------------------------------------------------------------------------|
A|-/66666-6-6-6-669955555-5-5-5-556633333-3-3-3-335511111111/8888/10101010---|
E|---------------------------------------------------------------------------|

Prechorus:”When you were mine…”
G|---------------------------------------------------------------------------|
D|---------------------------------------------------------------------------|
A|------------1-1-1-1--------------------------------------------------------|
E|--4-4-4-----------------4-4-4----------------------------------------------|

Chorus: “We had it all in front of us…”
G|---------------------------------------------------------------------------|
D|---------------------------------------------------------------------------|
A|--33333-------66666-111111-3333-------66666-11111--------------------------|
E|--------44444-------------------44444--------------------------------------|
“You were every…”
G|---------------------------------------------------------------------------|
D|---------------------------------------------------------------------------|
A|---------------33-------66--111133-----66666-1111--------------------------|
E|--------------------44--------------44-------------------------------------|


Verse:”Dressed up today in designer’s drugs…” [these are 1’s, 8’s, then 10’s]
G|---------------------------------------------------------------------------|
D|---------------------------------------------------------------------------|
A|-/66666-6-6-6-669955555-5-5-5-556633333-3-3-3-335511111111/8888/10101010---|
E|---------------------------------------------------------------------------|

Prechorus:”When you were mine…”
G|---------------------------------------------------------------------------|
D|---------------------------------------------------------------------------|
A|------------1-1-1----------------------------------------------------------|
E|--4-4-4-----------------4-4-4----------------------------------------------|

Chorus: “We had it all in front of us…”
G|---------------------------------------------------------------------------|
D|---------------------------------------------------------------------------|
A|--33333-------66666-111111-3333-------66666-11111--------------------------|
E|--------44444-------------------44444--------------------------------------|
“You were every…”
G|---------------------------------------------------------------------------|
D|---------------------------------------------------------------------------|
A|---------------33-------66--111133-----66666-1111--------------------------|
E|--------------------44--------------44-------------------------------------|

Bridge: “I am Standing…”
G|---------------------------------------------------|\    “Rough and ready…”
D|---------------------------------------------------| \
A|------------------666-666--------------------------| / x2
E|--444-444-444-444----------111-111-----------------|/

Bridge: I got nowhere else to go.”
G|---------------------------------------------------------------------------|
D|---------------------------------------------------------------------------|
A|------------1-1-1----------------------------------------------------------|
E|--4-4-4--------------------------------------------------------------------|


| /  slide up
| \  slide down
| h  hammer-on
| p  pull-off
| ~  vibrato
| +  harmonic
| x  Mute note
===============================================================================
            
Hard to play? Try these video lessons and learn fast. | Correct




comments powered by Disqus
↑ Back to top | Tablatures and chords are parodies/interpretations of the original songs. You may use it for private study, scholarship, research or language learning purposes only