» » »

Westlife, Unbreakable Tabs (ver.2)

Artists:  A B C D E F G H I J K L M N O P Q R S T U V W X Y Z # 

Unbreakable Tabs (ver.2)

Westlife Tabs
 Rating:
4/5 (4 votes)
Unbreakable lessons Tabs too difficult? Try these video lessons and learn fast
                e|-----3----|
B|----3-3---|
G|---3---3--|
D|----------|
A|----------|
E|-3--------|
Start on the secound, 4x and then start "Took my hand"
and then continue sing when you switch the E string.

e|-----3----|
B|----3-3---|
G|---3---3--|
D|----------|
A|----------|
E|-0--------|
2x

e|-----3----|
B|----3-3---|
G|---3---3--|
D|----------|
A|-3--------|
E|----------|
2x

e|-----3----|
B|----3-3---|
G|---3---3--|
D|----------|
A|-0--------|
E|----------|

And then restart!

//By KanoE/Squice  (Oskar D)
            
Submit corrections

comments powered by Disqus
↑ Back to top | Westlife Tabs for Unbreakable. Lyrics for acoustic guitar and electric guitar. Tablatures and chords are parodies/interpretations of the original songs. You may use it for private study, scholarship, research or language learning purposes only