>
 >
Unbreakable 1

Unbreakable 1 Guitar Tabs

Westlife - Unbreakable 1 chords, tabs, tablatures, lyrics

Guitar lessons | Add/correct | Request | Top 50 tabs Artists:  A B C D E F G H I J K L M N O P Q R S T U V W X Y Z 0-9

Unbreakable 1 Guitar Tabs – Westlife

CD, Sheet music, Poster

Do you like Unbreakable 1? Share with your friends now
ChordsChords v2Chords v3TabsTabs v2Tabs v3Ukulele
e|-----3----|
B|----3-3---|
G|---3---3--|
D|----------|
A|----------|
E|-3--------|
Start on the secound, 4x and then start "Took my hand"
and then continue sing when you switch the E string.

e|-----3----|
B|----3-3---|
G|---3---3--|
D|----------|
A|----------|
E|-0--------|
2x

e|-----3----|
B|----3-3---|
G|---3---3--|
D|----------|
A|-3--------|
E|----------|
2x

e|-----3----|
B|----3-3---|
G|---3---3--|
D|----------|
A|-0--------|
E|----------|

And then restart!

//By KanoE/Squice  (Oskar D)





Comments


Popular Westlife tabs & chords
I'll Be There Chords
My Love Chords
Queen Of My Heart 1 Chords
Safe Chords
When A Woman Loves A Man Chords
You Raise Me Up 6 Chords
Fragile Heart Ukulele
I Lay My Love On You Ukulele
If I Let You Go Ukulele
Love Crime Ukulele


Song lyrics



↑ Back to top | Tablatures and chords are parodies/interpretations of the original songs. You may use it for private study, scholarship, research or language learning purposes only
© 2014 AZChords.com Contact us | Privacy policy | DMCA | Add/correct tabs | Request tabs | Top 50 tabs