>
 >
More Than Words

More Than Words Guitar Tabs

Westlife - More Than Words chords, tabs, tablatures, lyrics

Guitar lessons | Add/correct | Request | Top 50 tabs Artists:  A B C D E F G H I J K L M N O P Q R S T U V W X Y Z 0-9

More Than Words Guitar Tabs – Westlife

CD, Sheet music, Poster

Do you like More Than Words? Share with your friends now
ChordsTabsUkulele
-------------------------------------------------------------------------------
			     Westlife_-_More Than Words (v1.7)
-------------------------------------------------------------------------------

Tuning: Drop ฝ step (Eb, Ab, Db, Gb, Bb, Eb)

This is Westlife's version of More Than Words.Did this entirely by listening to the song at mostly
90% speed and someparts at 80% using Windows Media Playerฉฎ. As accurate I can get other than buying
the official scores to learn this song, but I think this tab is enough for me.

Version 1.7 – Changed tuning terms to something better understood by people
              (Typed out this tab when I was still a guitar noob =]) thnx to
              meffickz
Version 1.6 – Noticed that the C chord they strum is actually an Am.
              4th November 2004
Version 1.5 – added quite a few notes, and actually added in the * which I
		 Totally forgot about. 11th May 2004
Version 1.0 - first release 5th May 2004

I added the * you see into the legend at the bottom of the page.
Check that out first before playing the song.

[Intro]

Guitar 1 Fig. 1
   G   *    *Cadd9*     *    *      *    *
e|----3----3----3----3-3---------3-0-------2-3--------------------|
B|----3----3----3----3-3----1----1-1----1--3-3--------------------|
G|----0----0----0----0-0----0----0-0----0-------------------------|
D|-----------------------------------------0----------------------|
A|-------2----3----3-3-3--0----0-0-0--3---------------------------|
E|-3--------------------------------------------------------------|

[Verse]

Guitar 1 Fig. 1 x2

[Pre-Chorus]

Guitar 1
      *    *    *     *   *             *     *   *    *
e|---0----0--------3-0---2--0-2\3---3—-3--2--2---0----0-----------|
B|---0----0----1---1-1---3--3-3-----3—-3--3--3---0----0-----------|
G|-------------0---0-0--------------------------------------------|
D|-----------------------0--0-0-----------------------------------|
A|------2----0---0-0-0--------------------------------------------|
E|-0--------------------------------3—-3—-2--2--0---0-------------|

[Chorus]

Guitar 1
    *      *  *          *    *   *    *   *   *   *    *         Am D
e|-0----3-0--2--0-2\3---1----1---0--------3-------3--3-3---3-3-3--0--2-|
B|-1----1-1--3--3-3-----0----0---1--3-1---1---1---3--3-3---3-3-3--1--3-|
G|--------------------------------------------0---0--0-0---0-0-0--2--2-|
D|-----------0--0-0-----------------------------------------------2--0-|
A|-0--0-0-0----------------2----3---3-3--3---3--------------------0--0-|
E|---------------------3-------------------------3---3-2--0--0-0-------|



[Post-chorus]

Guitar 1
  G  *   *   *   *            *   *   *   *      *   *     *   *      *  *
e|--3---3---3---3----2--2--0-2---0---0---0----------0---------0----3-0--2--2-3|
B|--3---3---3---3----0--0--0-0---0---0---1----1-1---1—-1--0---1----1-1—-3--3-3|
G|--0---0---0---0------------------------0----0-0---0—-0--0---0----0-0--------|
D|----------------------------------------------------------------------0--0-0|
A|-----2-------2--------------------2---3---3-3-3--3---3--2--0---0-0-0--------|
E|3--------3-------0-2--2--2-2--0---------------------------------------------|

[Post-chorus] (con’td)

Guitar 1
  G  *   *   *   *            *   *   *   *      *   *     *   *      * D
e|--3---3---3---3----2--2--0-2---0---0---0----------0---------0----3-0--2-----|
B|--3---3---3---3----0--0--0-0---0---0---1----1-1---1—-1--0---1----1-1—-3-----|
G|--0---0---0---0------------------------0----0-0---0—-0--0---0----0-0--2-----|
D|----------------------------------------------------------------------0-----|
A|-----2-------2--------------------2---3---3-3-3--3---3--2--0---0-0-0--0-----|
E|3--------3-------0-2--2--2-2--0---------------------------------------------|

[Bridge]

Guitar 1 Fig. 1 x1

[Bridge] (con’td)

Guitar 1
   G   *    *Cadd9*     *    *      * D
e|----3----3----3----3-3---------3-0--2---------------------------|
B|----3----3----3----3-3----1----1-1--3---------------------------|
G|----0----0----0----0-0----0----0-0--2---------------------------|
D|------------------------------------0---------------------------|
A|-------2----3----3-3-3--0----0-0-0--0---------------------------|
E|-3--------------------------------------------------------------|

[Verse]

Guitar 1 Fig. 1 x2

[Pre-Chorus]

Guitar 1
      *    *    *      *                 *     *
e|---0----0---------3-0---2--0-2\3---3—-3--2--2-------------------|
B|---0----0----1----1-1---3--3-3-----3—-3--3--3-------------------|
G|-------------0--------------------------------------------------|
D|------------------------0--0-0----------------------------------|
A|------2----0----0-0-0-------------------------------------------|
E|-0---------------------------------3—-3—-2--2--0----------------|

[Chorus]

Guitar 1
    *      *             *    *   *    *   *   *   *    *         Am D
e|-0----3-0--2--0-2\3---1----1---0--------3-------3--3-3---3-3-3--0--2-|
B|-1----1-1--3--3-3-----0----0---1--3-1---1---1---3--3-3---3-3-3--1--3-|
G|--------------------------------------------0---0--0-0---0-0-0--2--2-|
D|-----------0--0-0-----------------------------------------------2--0-|
A|-0--0-0-0----------------2----3---3-3--3---3--------------------0--0-|
E|---------------------3-------------------------3---3-2--0--0-0-------|

[Post-chorus]

Guitar 1
  G  *   *   *   *            *   *   *   *      *   *     *   *      *  *
e|--3---3---3---3----2--2--0-2---0---0---0----------0---------0----3-0--2--2-3|
B|--3---3---3---3----0--0--0-0---0---0---1----1-1---1—-1--0---1----1-1—-3--3-3|
G|--0---0---0---0------------------------0----0-0---0—-0--0---0----0-0--------|
D|----------------------------------------------------------------------0--0-0|
A|-----2-------2--------------------2---3---3-3-3--3---3--2--0-----0-0--------|
E|3--------3---------2--2--2-2--0---------------------------------------------|

[Post-chorus] (con’td)

Guitar 1
  G  *   *   *   *            *   *   *   *      *   *     *   *      * D  D G
e|--3---3---3---3----2--2--0-2---0---0---0----------0---------0----3-0--2--2-3|
B|--3---3---3---3----0--0--0-0---0---0---1----1-1---1—-1--0---1----1-1—-3--3-3|
G|--0---0---0---0------------------------0----0-0---0—-0--0---0----0-0--2--2-0|
D|----------------------------------------------------------------------0--0-0|
A|-----2-------2--------------------2---3---3-3-3--3---3--2--0---0-0-0--0--0-2|
E|3--------3---------2--2--2-2--0--------------------------------------------3|


| /  slide up
| \  slide down
| h  hammer-on
| p  pull-off
| ~  vibrato
| +  harmonic
| x  Mute note
| *  Hit all six strings with the bottom right side of your playing hand palm
     to mute the strings and create that effect that you hear when they play
     this song.
===============================================================================





Comments


Popular Westlife tabs & chords
Don't Let Me Go Chords
Flying Without Wings 1 Chords
I Have A Dream 1 Chords
Moments Chords
No Ones Gonna Sleep Tonight Chords
Total Eclipse Of The Heart Chords
I Do Ukulele
Ill Be There Ukulele
Moments Ukulele
Nothing Is Impossible Ukulele


Song lyrics



↑ Back to top | Tablatures and chords are parodies/interpretations of the original songs. You may use it for private study, scholarship, research or language learning purposes only
© 2014 AZChords.com Contact us | Privacy policy | DMCA | Add/correct tabs | Request tabs | Top 50 tabs